srv

01234567891011121314151617181920212223
E
B
G
D
A
E
B
0 1 2 3 4 5 6 7 8 9 10 11 12 13 14 15 16 17 18 19 20 21 22 23
(/) Slide Up  (\) Slide Down  (h) Hammer On  (p) Pull Off  (b) Bend (r) Release (v) Vibrato

Stave 1:

Eb|----------12-------------|----------12-------------
Bb|-------12----15-12-15b17-|-------12----15-12-15b17-
Gb|-14b16-------------------|-14b16-------------------
Db|-------------------------|-------------------------
Ab|-------------------------|-------------------------
Eb|-------------------------|-------------------------

Stave 2:

Eb|----------12-------12-15-12----------12-15-15/17v-17v-17v-17v-
Bb|-------12----15b17----------15-12-----------------------------
Gb|-14b16----------------------------14--------------------------
Db|--------------------------------------------------------------
Ab|--------------------------------------------------------------
Eb|--------------------------------------------------------------

Stave 3:

Eb|-17/19v-19v-19v-19v-19v-19v-19\17-17-17p16-17p16-17p16-17p16-17p16-------------
Bb|-------------------------------------------------------------------17v-17v-17v-
Gb|-------------------------------------------------------------------------------
Db|-------------------------------------------------------------------------------
Ab|-------------------------------------------------------------------------------
Eb|-------------------------------------------------------------------------------

Stave 4:

Eb|-------15-17-17-17b19-
Bb|-12/17----------------
Gb|----------------------
Db|----------------------
Ab|----------------------
Eb|----------------------

Stave 5:

Eb|----------12----15-12----------12----------12----------12----15-12----------12----------12-
Bb|-------12----12-------12-15b17----------12----------12----12-------12-15b17----------12----
Gb|-14b16----------------------------14b16-------14b16----------------------------14b16-------
Db|-------------------------------------------------------------------------------------------
Ab|-------------------------------------------------------------------------------------------
Eb|-------------------------------------------------------------------------------------------

Stave 6:

Eb|-------------------------------------------------------------
Bb|-15-15-15-12----12----14-14-14-12----12----14-14-14-12----12-
Gb|-14-16-14-12----12----14-14-14-12----12----14-14-14-12----12-
Db|-------------14-------------------14-------------------14----
Ab|-------------------------------------------------------------
Eb|-------------------------------------------------------------

Stave 7:

Eb|-------------------------------------
Bb|-------------------------------------
Gb|-------------------------------------
Db|-------------------------------------
Ab|-14-14-12h14-14-14-12h14-14v-14v-14v-
Eb|-------------------------------------

Stave 8:

Eb|----------12-------12-15-12-|----------12-15-12----15b16-12-
Bb|-------12----15b17----------|-------12----------12----------
Gb|-14b16----------------------|-14b16-------------------------
Db|----------------------------|-------------------------------
Ab|----------------------------|-------------------------------
Eb|----------------------------|-------------------------------

Stave 9:

Eb|----------------12-------12-------12-------12-------12-------12-------------------
Bb|----------------------------------------------------------------------------------
Gb|-12-12-12-14b16----14b16----14b16----14b16----14b16----14b16----14b16r14p12----12-
Db|----------------------------------------------------------------------------14----
Ab|----------------------------------------------------------------------------------
Eb|----------------------------------------------------------------------------------

Stave 10:

Eb|-----------------------------------------------------------------------------
Bb|-----------------------------------------------------------------------------
Gb|-14b16v-16v-16v-16v-16v-16v-16v-16v-16v-16v----12-14b15r14-12----14b16-14b16-
Db|--------------------------------------------------------------14-------------
Ab|-----------------------------------------------------------------------------
Eb|-----------------------------------------------------------------------------

Stave 11:

Eb|-------------------------------------------------------------
Bb|-------------------------------------------------------------
Gb|-14-12-14-12--------------------------------------12h14v-12v-
Db|-------------14-12-------------------------12h14v------------
Ab|-------------------14-13-12-------12-------------------------
Eb|----------------------------15-12----15-12-------------------

Stave 12:

Eb|--------------------------------------------------------------------
Bb|--------------------------------------------------------------------
Gb|-14b15-14-12----12v-12v---------------------------------14b15-14-12-
Db|-------------14---------12h14------------------12b13-14-------------
Ab|------------------------------12h14-12h14v-14v----------------------
Eb|--------------------------------------------------------------------

Stave 13:

Eb|--------------------------------------------------------------------
Bb|--------------------------------------------------------------------
Gb|--------------------------0-----------------------------------------
Db|-14-12-5-2----------2---2---2---------------------------------------
Ab|----------------2h4---4----------0h2-0h2-0h2p0h2p0h2p0h2p0h2p0----2-
Eb|-----------0------------------------------------------------------0-

							http://www.guitartabcreator.com
Chords

Instruments
{"strings":[[[".",".",".",".",12,".",".",".",".",".","|",".",".",".",".",12,".",".",".",".","."],[".",".",".",12,".",15,12,15,"b",17,"|",".",".",".",12,".",15,12,15,"b",17],[14,"b",16,".",".",".",".",".",".",".","|",14,"b",16,".",".",".",".",".",".","."],[".",".",".",".",".",".",".",".",".",".","|",".",".",".",".",".",".",".",".",".","."],[".",".",".",".",".",".",".",".",".",".","|",".",".",".",".",".",".",".",".",".","."],[".",".",".",".",".",".",".",".",".",".","|",".",".",".",".",".",".",".",".",".","."]],[[".",".",".",".",12,".",".",".",12,15,12,".",".",".",12,15,15,"/",17,"v",17,"v",17,"v",17,"v"],[".",".",".",12,".",15,"b",17,".",".",".",15,12,".",".",".",".",".",".",".",".",".",".",".",".","."],[14,"b",16,".",".",".",".",".",".",".",".",".",".",14,".",".",".",".",".",".",".",".",".",".",".","."],[".",".",".",".",".",".",".",".",".",".",".",".",".",".",".",".",".",".",".",".",".",".",".",".",".","."],[".",".",".",".",".",".",".",".",".",".",".",".",".",".",".",".",".",".",".",".",".",".",".",".",".","."],[".",".",".",".",".",".",".",".",".",".",".",".",".",".",".",".",".",".",".",".",".",".",".",".",".","."]],[[17,"/",19,"v",19,"v",19,"v",19,"v",19,"v",19,"v",19,"\\",17,17,17,"p",16,17,"p",16,17,"p",16,17,"p",16,17,"p",16,".",".",".",".",".","."],[".",".",".",".",".",".",".",".",".",".",".",".",".",".",".",".",".",".",".",".",".",".",".",".",".",".",".",".",".",".",".",".",".",17,"v",17,"v",17,"v"],[".",".",".",".",".",".",".",".",".",".",".",".",".",".",".",".",".",".",".",".",".",".",".",".",".",".",".",".",".",".",".",".",".",".",".",".",".",".","."],[".",".",".",".",".",".",".",".",".",".",".",".",".",".",".",".",".",".",".",".",".",".",".",".",".",".",".",".",".",".",".",".",".",".",".",".",".",".","."],[".",".",".",".",".",".",".",".",".",".",".",".",".",".",".",".",".",".",".",".",".",".",".",".",".",".",".",".",".",".",".",".",".",".",".",".",".",".","."],[".",".",".",".",".",".",".",".",".",".",".",".",".",".",".",".",".",".",".",".",".",".",".",".",".",".",".",".",".",".",".",".",".",".",".",".",".",".","."]],[[".",".",".",15,17,17,17,"b",19],[12,"/",17,".",".",".",".",".","."],[".",".",".",".",".",".",".",".","."],[".",".",".",".",".",".",".",".","."],[".",".",".",".",".",".",".",".","."],[".",".",".",".",".",".",".",".","."]],[[".",".",".",".",12,".",15,12,".",".",".",".",12,".",".",".",".",12,".",".",".",".",12,".",15,12,".",".",".",".",12,".",".",".",".",12],[".",".",".",12,".",12,".",".",12,15,"b",17,".",".",".",".",12,".",".",".",".",12,".",12,".",".",12,15,"b",17,".",".",".",".",12,"."],[14,"b",16,".",".",".",".",".",".",".",".",".",".",14,"b",16,".",".",14,"b",16,".",".",".",".",".",".",".",".",".",".",14,"b",16,".","."],[".",".",".",".",".",".",".",".",".",".",".",".",".",".",".",".",".",".",".",".",".",".",".",".",".",".",".",".",".",".",".",".",".",".",".","."],[".",".",".",".",".",".",".",".",".",".",".",".",".",".",".",".",".",".",".",".",".",".",".",".",".",".",".",".",".",".",".",".",".",".",".","."],[".",".",".",".",".",".",".",".",".",".",".",".",".",".",".",".",".",".",".",".",".",".",".",".",".",".",".",".",".",".",".",".",".",".",".","."]],[[".",".",".",".",".",".","_",".",".",".",".",".",".","_",".",".",".",".",".","."],[15,15,15,12,".",12,"_",14,14,14,12,".",12,"_",14,14,14,12,".",12],[14,16,14,12,".",12,"_",14,14,14,12,".",12,"_",14,14,14,12,".",12],[".",".",".",".",14,".","_",".",".",".",".",14,".","_",".",".",".",".",14,"."],[".",".",".",".",".",".","_",".",".",".",".",".",".","_",".",".",".",".",".","."],[".",".",".",".",".",".","_",".",".",".",".",".",".","_",".",".",".",".",".","."]],[[".",".",".",".",".",".",".",".",".",".",".",".",".",".",".","."],[".",".",".",".",".",".",".",".",".",".",".",".",".",".",".","."],[".",".",".",".",".",".",".",".",".",".",".",".",".",".",".","."],[".",".",".",".",".",".",".",".",".",".",".",".",".",".",".","."],[14,14,12,"h",14,14,14,12,"h",14,14,"v",14,"v",14,"v"],[".",".",".",".",".",".",".",".",".",".",".",".",".",".",".","."]],[[".",".",".",".",12,".",".",".",12,15,12,"|",".",".",".",".",12,15,12,".",15,"b",16,12],[".",".",".",12,".",15,"b",17,".",".",".","|",".",".",".",12,".",".",".",12,".",".",".","."],[14,"b",16,".",".",".",".",".",".",".",".","|",14,"b",16,".",".",".",".",".",".",".",".","."],[".",".",".",".",".",".",".",".",".",".",".","|",".",".",".",".",".",".",".",".",".",".",".","."],[".",".",".",".",".",".",".",".",".",".",".","|",".",".",".",".",".",".",".",".",".",".",".","."],[".",".",".",".",".",".",".",".",".",".",".","|",".",".",".",".",".",".",".",".",".",".",".","."]],[[".",".",".",".",".",".",12,".",".",".",12,".",".",".",12,".",".",".",12,".",".",".",12,".",".",".",12,".",".",".",".",".",".",".",".","."],[".",".",".",".",".",".",".",".",".",".",".",".",".",".",".",".",".",".",".",".",".",".",".",".",".",".",".",".",".",".",".",".",".",".",".","."],[12,12,12,14,"b",16,".",14,"b",16,".",14,"b",16,".",14,"b",16,".",14,"b",16,".",14,"b",16,".",14,"b",16,"r",14,"p",12,".",12],[".",".",".",".",".",".",".",".",".",".",".",".",".",".",".",".",".",".",".",".",".",".",".",".",".",".",".",".",".",".",".",".",".",".",14,"."],[".",".",".",".",".",".",".",".",".",".",".",".",".",".",".",".",".",".",".",".",".",".",".",".",".",".",".",".",".",".",".",".",".",".",".","."],[".",".",".",".",".",".",".",".",".",".",".",".",".",".",".",".",".",".",".",".",".",".",".",".",".",".",".",".",".",".",".",".",".",".",".","."]],[[".",".",".",".",".",".",".",".",".",".",".",".",".",".",".",".",".",".",".",".",".",".","_",".",".",".",".",".",".",".",".",".",".",".",".",".","."],[".",".",".",".",".",".",".",".",".",".",".",".",".",".",".",".",".",".",".",".",".",".","_",".",".",".",".",".",".",".",".",".",".",".",".",".","."],[14,"b",16,"v",16,"v",16,"v",16,"v",16,"v",16,"v",16,"v",16,"v",16,"v",16,"v","_",12,14,"b",15,"r",14,12,".",14,"b",16,14,"b",16],[".",".",".",".",".",".",".",".",".",".",".",".",".",".",".",".",".",".",".",".",".",".","_",".",".",".",".",".",".",".",14,".",".",".",".",".","."],[".",".",".",".",".",".",".",".",".",".",".",".",".",".",".",".",".",".",".",".",".",".","_",".",".",".",".",".",".",".",".",".",".",".",".",".","."],[".",".",".",".",".",".",".",".",".",".",".",".",".",".",".",".",".",".",".",".",".",".","_",".",".",".",".",".",".",".",".",".",".",".",".",".","."]],[[".",".",".",".",".",".",".",".",".",".",".",".",".",".",".",".",".",".",".",".",".",".",".","."],[".",".",".",".",".",".",".",".",".",".",".",".",".",".",".",".",".",".",".",".",".",".",".","."],[14,12,14,12,".",".",".",".",".",".",".",".",".",".",".",".",".",".",12,"h",14,"v",12,"v"],[".",".",".",".",14,12,".",".",".",".",".",".",".",".",12,"h",14,"v",".",".",".",".",".","."],[".",".",".",".",".",".",14,13,12,".",".",12,".",".",".",".",".",".",".",".",".",".",".","."],[".",".",".",".",".",".",".",".",".",15,12,".",15,12,".",".",".",".",".",".",".",".",".","."]],[[".",".",".",".",".",".",".",".",".",".",".",".",".",".",".",".",".",".",".",".",".",".",".",".",".",".",".",".",".",".","."],[".",".",".",".",".",".",".",".",".",".",".",".",".",".",".",".",".",".",".",".",".",".",".",".",".",".",".",".",".",".","."],[14,"b",15,14,12,".",12,"v",12,"v",".",".",".",".",".",".",".",".",".",".",".",".",".",".",".",".",14,"b",15,14,12],[".",".",".",".",".",14,".",".",".",".",12,"h",14,".",".",".",".",".",".",".",".",".",12,"b",13,14,".",".",".",".","."],[".",".",".",".",".",".",".",".",".",".",".",".",".",12,"h",14,12,"h",14,"v",14,"v",".",".",".",".",".",".",".",".","."],[".",".",".",".",".",".",".",".",".",".",".",".",".",".",".",".",".",".",".",".",".",".",".",".",".",".",".",".",".",".","."]],[[".",".",".",".",".","_",".",".",".",".",".",".",".",".","_",".",".",".",".",".",".",".",".",".",".",".",".",".",".",".",".",".",".",".",".",".",".",".",".",".",".",".","_","."],[".",".",".",".",".","_",".",".",".",".",".",".",".",".","_",".",".",".",".",".",".",".",".",".",".",".",".",".",".",".",".",".",".",".",".",".",".",".",".",".",".",".","_","."],[".",".",".",".",".","_",".",".",".",".",".",".",0,".","_",".",".",".",".",".",".",".",".",".",".",".",".",".",".",".",".",".",".",".",".",".",".",".",".",".",".",".","_","."],[14,12,5,2,".","_",".",".",".",2,".",2,".",2,"_",".",".",".",".",".",".",".",".",".",".",".",".",".",".",".",".",".",".",".",".",".",".",".",".",".",".",".","_","."],[".",".",".",".",".","_",2,"h",4,".",4,".",".",".","_",0,"h",2,0,"h",2,0,"h",2,"p",0,"h",2,"p",0,"h",2,"p",0,"h",2,"p",0,"h",2,"p",0,"_",2],[".",".",".",".",0,"_",".",".",".",".",".",".",".",".","_",".",".",".",".",".",".",".",".",".",".",".",".",".",".",".",".",".",".",".",".",".",".",".",".",".",".",".","_",0]]],"numberofstrings":6,"notes":["DsEb","AsBb","FsGb","CsDb","GsAb","DsEb"],"capo":0,"stringnotes":["Eb3","Bb2","Gb2","Db2","Ab1","Eb1"],"comments":["Stave 1:","Stave 2:","Stave 3:","Stave 4:","Stave 5:","Stave 6:","Stave 7:","Stave 8:","Stave 9:","Stave 10:","Stave 11:","Stave 12:","Stave 13:"],"timing":[["W",null,"W","W","W","W","W","W",null,"W",null,"W",null,"W","W","W","W","W","W",null,"W"],["W",null,"W","W","W","W",null,"W","W","W","W","W","W","W","W","W","W",null,"W",null,"W",null,"W",null,"W",null,"W",null,"W"],["W",null,"W",null,"W",null,"W",null,"W",null,"W",null,"W",null,"W",null,"W","W","W",null,"W","W",null,"W","W","W","W","W",null,"W","W",null,"W","W",null,"W",null,"W"],["W",null,"W","W","W","W","W",null,"W"],["W",null,"W","W","W","W","W","W","W","W",null,"W","W","W",null,"W","W","W","W",null,"W","W","W","W","W","W","W","W",null,"W","W","W",null,"W","W","W"],["W","W","W","W","W","W",null,"W","W","W","W","W","W",null,"W","W","W","W","W","W"],["W","W","W",null,"W","W","W","W",null,"W","W",null,"W",null,"W"],["W",null,"W","W","W","W",null,"W","W","W","W",null,"W",null,"W","W","W","W","W","W","W",null,"W","W"],["W","W","W","W",null,"W","W","W",null,"W","W","W",null,"W","W","W",null,"W","W","W",null,"W","W","W",null,"W","W","W",null,"W",null,"W",null,"W","W","W"],["W",null,"W",null,"W",null,"W",null,"W",null,"W",null,"W",null,"W",null,"W",null,"W",null,"W","W",null,"W","W",null,"W",null,"W","W","W","W",null,"W","W",null,"W","W","W","W","W"],["W","W","W","W","W","W","W","W","W","W","W","W","W","W","W",null,"W",null,"W","W","W","W","W"],["W",null,"W","W","W","W","W",null,"W",null,"W",null,"W","W",null,"W","W",null,"W",null,"W",null,"W",null,"W","W","W",null,"W","W","W"],["W","W","W","W","W",null,"W",null,"W","W","W","W","W","W",null,"W",null,"W","W",null,"W","W",null,"W",null,"W",null,"W",null,"W",null,"W",null,"W",null,"W",null,"W",null,"W",null,"W","W","W"]],"timingvisible":false,"tabcounter":43,"stave":12,"totalstaves":13,"instrument":"6guitar","selectedtuning":"Half Step Down","version":"13"}

Member for

3 months 4 weeks
Submitted by ndevo97 on Wed, 2020-12-09 20:39