The Sweetest Nectar (4 String Bass)

01234567891011121314151617181920212223
E
B
G
D
A
E
B
0 1 2 3 4 5 6 7 8 9 10 11 12 13 14 15 16 17 18 19 20 21 22 23
(/) Slide Up  (\) Slide Down  (h) Hammer On  (p) Pull Off  (b) Bend (r) Release (v) Vibrato

Intro (Repeat 4x)

F|-----------------------------------------------------------------------
C|-----------------------------------------------------------------------
G|--7-----------5--7-----------2--3--3--3--3--3--3--3--5--5--5--5--5--5--
D|-----0--0--0--------0--0--0--------------------------------------------

Verse A

F|-----------------------------------------------------------------------------------------
C|-----------------------------------------------------------------------------------------
G|-----------------------------------------------------------------------------------------
D|--0--------0-----------3--3--3--5--5--5--0-----------0--------------3--3--3--2--2--3--2--

Verse B

F|--------------------------------------------------------------------------------------------------------------------------------------------------------
C|--------------------------------------------------------------------------------------------------------------------------------------------------------
G|--------------------------------------------------------------------------------------------------------------------------------------------------------
D|--0--0--0--0--0--0--0--0--0--0--0--0--0--0--0--0--0--0--0--0--0--5--5--5--5--7--7--7--7--0--0--0--0--0--0--0--0--0--0--0--0--0--0--3--3--3--2--2--3--2--

Prechorus (Repeat 4x)

F|--------------------------------------------------------------------------------------------------------
C|--------------------------------------------------------------------------------------------------------
G|--------------------------------------------------------------------------------------------------------
D|--0--0--0--0--0--------------0--0--0--0--0--------------0--0--0--0--0-----------8--8--8--8--8--8--8--8--

Chorus A (Repeat 4x)

F|-----------------------------------------------------------
C|-----------------------------------------------------------
G|-----------------------------------------------------------
D|--5--5--5--5--5--5--5--1--1--1--1--1--1--1--3--3--3--3--3--

Chorus B (Repeat 4x)

F|--------------------------------------------------
C|--------------------------------------------------
G|--7--------5--7--------2--3--------2--3--2--------
D|--------------------------------------------3--0--

Bridge (Repeat 4x)

F|-------------------------------------------------------------------------------------
C|-------------------------------------------------------------------------------------
G|--7\0-----------------7\0-----------------7\0-----------------7\0--------3--5--------
D|-------0-----0--0--0-------0-----0--0--0-------0-----0--0--0-------0--0--------0--0--

Chorus A (Repeat 4x)

F|-----------------------------------------------------------
C|-----------------------------------------------------------
G|-----------------------------------------------------------
D|--5--5--5--5--5--5--5--1--1--1--1--1--1--1--3--3--3--3--3--

Chorus B (Repeat 4x)

F|-----------------------------------------------------
C|-----------------------------------------------------
G|--7--------5--7--------2--3--------2--3--2-----------
D|--------------------------------------------3--0-----

Outro (Repeat 4x)

F|-----------------------------------------------------------------------------------------------
C|-----------------------------------------------------------------------------------------------
G|-----------------------------------------------------------------------------------------------
D|--5-----------1-----3-----5-----------1-----3-----5--------1-----3-----5--------1-----3--------

							http://www.guitartabcreator.com
Chords

Instruments
{"strings":[[[".",".",".",".",".",".",".",".",".",".",".",".",".",".",".",".",".",".",".",".",".",".","."],[".",".",".",".",".",".",".",".",".",".",".",".",".",".",".",".",".",".",".",".",".",".","."],[7,".",".",".",5,7,".",".",".",2,3,3,3,3,3,3,3,5,5,5,5,5,5],[".",0,0,0,".",".",0,0,0,".",".",".",".",".",".",".",".",".",".",".",".",".","."]],[[".","_","_",".","_","_","_",".",".",".",".",".",".",".","_","_","_",".","_","_","_","_",".",".",".",".",".",".","."],[".","_","_",".","_","_","_",".",".",".",".",".",".",".","_","_","_",".","_","_","_","_",".",".",".",".",".",".","."],[".","_","_",".","_","_","_",".",".",".",".",".",".",".","_","_","_",".","_","_","_","_",".",".",".",".",".",".","."],[0,"_","_",0,"_","_","_",3,3,3,5,5,5,0,"_","_","_",0,"_","_","_","_",3,3,3,2,2,3,2]],[[".",".",".",".",".",".",".",".",".",".",".",".",".",".",".",".",".",".",".",".",".",".",".",".",".",".",".",".",".",".",".",".",".",".",".",".",".",".",".",".",".",".",".",".",".",".",".",".",".","."],[".",".",".",".",".",".",".",".",".",".",".",".",".",".",".",".",".",".",".",".",".",".",".",".",".",".",".",".",".",".",".",".",".",".",".",".",".",".",".",".",".",".",".",".",".",".",".",".",".","."],[".",".",".",".",".",".",".",".",".",".",".",".",".",".",".",".",".",".",".",".",".",".",".",".",".",".",".",".",".",".",".",".",".",".",".",".",".",".",".",".",".",".",".",".",".",".",".",".",".","."],[0,0,0,0,0,0,0,0,0,0,0,0,0,0,0,0,0,0,0,0,0,5,5,5,5,7,7,7,7,0,0,0,0,0,0,0,0,0,0,0,0,0,0,3,3,3,2,2,3,2]],[[".",".",".",".",".","_","_","_","_",".",".",".",".",".","_","_","_","_",".",".",".",".",".","_","_","_",".",".",".",".",".",".",".","."],[".",".",".",".",".","_","_","_","_",".",".",".",".",".","_","_","_","_",".",".",".",".",".","_","_","_",".",".",".",".",".",".",".","."],[".",".",".",".",".","_","_","_","_",".",".",".",".",".","_","_","_","_",".",".",".",".",".","_","_","_",".",".",".",".",".",".",".","."],[0,0,0,0,0,"_","_","_","_",0,0,0,0,0,"_","_","_","_",0,0,0,0,0,"_","_","_",8,8,8,8,8,8,8,8]],[[".",".",".",".",".",".",".",".",".",".",".",".",".",".",".",".",".",".","."],[".",".",".",".",".",".",".",".",".",".",".",".",".",".",".",".",".",".","."],[".",".",".",".",".",".",".",".",".",".",".",".",".",".",".",".",".",".","."],[5,5,5,5,5,5,5,1,1,1,1,1,1,1,3,3,3,3,3]],[[".","_","_",".",".","_","_",".",".","_","_",".",".",".",".","."],[".","_","_",".",".","_","_",".",".","_","_",".",".",".",".","."],[7,"_","_",5,7,"_","_",2,3,"_","_",2,3,2,".","."],[".","_","_",".",".","_","_",".",".","_","_",".",".",".",3,0]],[[".",".",".",".","_",".",".",".",".",".",".",".","_",".",".",".",".",".",".",".","_",".",".",".",".",".",".",".",".",".",".",".","."],[".",".",".",".","_",".",".",".",".",".",".",".","_",".",".",".",".",".",".",".","_",".",".",".",".",".",".",".",".",".",".",".","."],[7,"\\",0,".","_",".",".",".",7,"\\",0,".","_",".",".",".",7,"\\",0,".","_",".",".",".",7,"\\",0,".",".",3,5,".","."],[".",".",".",0,"_",0,0,0,".",".",".",0,"_",0,0,0,".",".",".",0,"_",0,0,0,".",".",".",0,0,".",".",0,0]],[[".",".",".",".",".",".",".",".",".",".",".",".",".",".",".",".",".",".","."],[".",".",".",".",".",".",".",".",".",".",".",".",".",".",".",".",".",".","."],[".",".",".",".",".",".",".",".",".",".",".",".",".",".",".",".",".",".","."],[5,5,5,5,5,5,5,1,1,1,1,1,1,1,3,3,3,3,3]],[[".","_","_",".",".","_","_",".",".","_","_",".",".",".",".",".","_"],[".","_","_",".",".","_","_",".",".","_","_",".",".",".",".",".","_"],[7,"_","_",5,7,"_","_",2,3,"_","_",2,3,2,".",".","_"],[".","_","_",".",".","_","_",".",".","_","_",".",".",".",3,0,"_"]],[[".","_","_","_",".","_",".","_",".","_","_","_",".","_",".","_",".","_","_",".","_",".","_",".","_","_",".","_",".","_","_"],[".","_","_","_",".","_",".","_",".","_","_","_",".","_",".","_",".","_","_",".","_",".","_",".","_","_",".","_",".","_","_"],[".","_","_","_",".","_",".","_",".","_","_","_",".","_",".","_",".","_","_",".","_",".","_",".","_","_",".","_",".","_","_"],[5,"_","_","_",1,"_",3,"_",5,"_","_","_",1,"_",3,"_",5,"_","_",1,"_",3,"_",5,"_","_",1,"_",3,"_","_"]]],"numberofstrings":4,"notes":["F","C","G","D"],"capo":0,"stringnotes":["F2","C2","G1","D1"],"comments":["Intro (Repeat 4x)","Verse A","Verse B","Prechorus (Repeat 4x)","Chorus A (Repeat 4x)","Chorus B (Repeat 4x)","Bridge (Repeat 4x)","Chorus A (Repeat 4x)","Chorus B (Repeat 4x)","Outro (Repeat 4x)"],"timing":[[null,null,null,null,null,null,null,null,null,null,null,null,null,null,null,null,null,null,null,null,null,null,null],["W","W","W","W","W","W","W","W","W","W","W","W","W","W","W","W","W","W","W","W","W","W","W","W","W","W","W","W","W"],["W","W","W","W","W","W","W","W","W","W","W","W","W","W","W","W","W","W","W","W","W","W","W","W","W","W","W","W","W","W","W","W","W","W","W","W","W","W","W","W","W","W","W","W","W","W","W","W","W","W"],["W","W","W","W","W","W","W","W","W","W","W","W","W","W","W","W","W","W","W","W","W","W","W","W","W","W","W","W","W","W","W","W","W","W"],["W","W","W","W","W","W","W","W","W","W","W","W","W","W","W","W","W","W","W"],["W","W","W","W","W","W","W","W","W","W","W","W","W","W","W","W"],["W",null,"W","W","W","W","W","W","W",null,"W","W","W","W","W","W","W",null,"W","W","W","W","W","W","W",null,"W","W","W","W","W","W","W"],["W","W","W","W","W","W","W","W","W","W","W","W","W","W","W","W","W","W","W"],["W","W","W","W","W","W","W","W","W","W","W","W","W","W","W","W","W"],["W","W","W","W","W","W","W","W","W","W","W","W","W","W","W","W","W","W","W","W","W","W","W","W","W","W","W","W","W","W","W"]],"timingvisible":false,"tabcounter":31,"stave":9,"totalstaves":10,"instrument":"4bass","selectedtuning":"4bass","version":"13"}

Member for

1 month 2 weeks
Submitted by nbush82 on Tue, 2021-10-12 14:41