The Painted Veil (4 String Bass)

01234567891011121314151617181920212223
E
B
G
D
A
E
B
0 1 2 3 4 5 6 7 8 9 10 11 12 13 14 15 16 17 18 19 20 21 22 23
(/) Slide Up  (\) Slide Down  (h) Hammer On  (p) Pull Off  (b) Bend (r) Release (v) Vibrato

Intro (Repeat 4x)

F|-----------------------------------------------------------------
C|-----------------------------------------------------------5--4--
G|--7-----------7--5--7-----------3--5--7-----------7--5--3--------
D|-----0--0--0-----------0--0--0-----------0--0--0-----------------

Transition (Repeat 2x)

F|-----------------------------------------------------------------------
C|-----------------------------------------------------------------------
G|--------------------------------3--3--3--3--3--3--5--5--5--5--5--5-----
D|--0--0--0--------0--0--0-----------------------------------------------

Verse A (Repeat 2x)

F|----------------------------------------------------------------------------------------------------------------------------------------------------
C|----------------------------------------------------------------------------------------------------------------------------------------------------
G|-----------7--5--7-----------7--5--7-----------10--9--10-----------9--7--9-----------7--5--7-----------7--5--7--3--3--3--3--3--3--5--5--5--5--5--5--
D|--0--0--0-----------0--0--0-----------0--0--0-------------0--0--0-----------0--0--0-----------0--0--0-----------------------------------------------

Verse B (Repeat 2x)

F|-----------------------------------------------------------------------------------------------------------------------------------
C|-----------------------------------------------------------------------------------------------------------------------------------
G|-----------7-----------5-----------------------------------------------7-----------5-----------3--3--3--3--3--3--5--5--5--5--5--5--
D|--0--0--0-----0--0--0-----0--0--0--3--3--3--3--5--5--5--0-----0--0--0-----0--0--0-----0--0--0--------------------------------------

Verse A (Repeat 2x)

F|-----
C|-----
G|-----
D|-----

Verse B (Repeat 2x)

F|--
C|--
G|--
D|--

Chugdown (Repeat 4x)

F|-----------------------------------------------------------------------------------------------------------------------------
C|-----------------------------------------------------------------------------------------------------------------------------
G|-----------------------------------------------3--3--3--5--5--5--------------------------------------------------------------
D|--0--0--0--0--0--0--0-----0--0--0--0-----0-----------------------0--0--0--0--0--0--0-----0--0--0--0-----0-----0--0--0--0-----

 Post Chug (Repeat 4x)

F|--------------------------------------------------------------------------------------------------------
C|--------------------------------------------------------------------------------------------------------
G|--7-----------------------7--5--7-----------------3--5--7-----------------------------3--2--5--3--2--0--
D|-----0--0--0--0--0--0--0-----------0--0--0--0--0-----------0--0--0--0--0--0--0--0-----------------------

Groove Down (Repeat 4x)

F|-----------------------------------------------------------------------------------------------------
C|-----------------------------------------------------------------------------------------------------
G|--------------7--5--------------------------------------------------------7--5-----------------3--5--
D|--0-----0--0-----------0--3--0-----0-----3--5--3--2--3--2--0-----0-----0--------0--3--0-----0--------

							http://www.guitartabcreator.com
Chords

Instruments
{"strings":[[[".",".",".",".",".",".",".",".",".",".",".",".",".",".",".",".",".",".",".",".","."],[".",".",".",".",".",".",".",".",".",".",".",".",".",".",".",".",".",".",".",5,4],[7,".",".",".",7,5,7,".",".",".",3,5,7,".",".",".",7,5,3,".","."],[".",0,0,0,".",".",".",0,0,0,".",".",".",0,0,0,".",".",".",".","."]],[[".",".",".","_","_",".",".",".","_","_",".",".",".",".",".",".",".",".",".",".",".",".","_"],[".",".",".","_","_",".",".",".","_","_",".",".",".",".",".",".",".",".",".",".",".",".","_"],[".",".",".","_","_",".",".",".","_","_",3,3,3,3,3,3,5,5,5,5,5,5,"_"],[0,0,0,"_","_",0,0,0,"_","_",".",".",".",".",".",".",".",".",".",".",".",".","_"]],[[".",".",".",".",".",".",".",".",".",".",".",".",".",".",".",".",".",".",".",".",".",".",".",".",".",".",".",".",".",".",".",".",".",".",".",".",".",".",".",".",".",".",".",".",".",".",".","."],[".",".",".",".",".",".",".",".",".",".",".",".",".",".",".",".",".",".",".",".",".",".",".",".",".",".",".",".",".",".",".",".",".",".",".",".",".",".",".",".",".",".",".",".",".",".",".","."],[".",".",".",7,5,7,".",".",".",7,5,7,".",".",".",10,9,10,".",".",".",9,7,9,".",".",".",7,5,7,".",".",".",7,5,7,3,3,3,3,3,3,5,5,5,5,5,5],[0,0,0,".",".",".",0,0,0,".",".",".",0,0,0,".",".",".",0,0,0,".",".",".",0,0,0,".",".",".",0,0,0,".",".",".",".",".",".",".",".",".",".",".",".",".",".","."]],[[".",".",".",".",".",".",".",".",".",".",".",".",".",".",".",".",".",".",".","_",".",".",".",".",".",".",".",".",".",".",".",".",".",".",".",".",".",".",".",".",".",".","."],[".",".",".",".",".",".",".",".",".",".",".",".",".",".",".",".",".",".",".","_",".",".",".",".",".",".",".",".",".",".",".",".",".",".",".",".",".",".",".",".",".",".","."],[".",".",".",7,".",".",".",5,".",".",".",".",".",".",".",".",".",".",".","_",".",".",".",7,".",".",".",5,".",".",".",3,3,3,3,3,3,5,5,5,5,5,5],[0,0,0,".",0,0,0,".",0,0,0,3,3,3,3,5,5,5,0,"_",0,0,0,".",0,0,0,".",0,0,0,".",".",".",".",".",".",".",".",".",".",".","."]],[["_"],["_"],["_"],["_"]],[[],[],[],[]],[[".",".",".",".",".",".",".","_",".",".",".",".","_",".","_",".",".",".",".",".",".",".",".",".",".",".",".",".","_",".",".",".",".","_",".","_",".",".",".",".","_"],[".",".",".",".",".",".",".","_",".",".",".",".","_",".","_",".",".",".",".",".",".",".",".",".",".",".",".",".","_",".",".",".",".","_",".","_",".",".",".",".","_"],[".",".",".",".",".",".",".","_",".",".",".",".","_",".","_",3,3,3,5,5,5,".",".",".",".",".",".",".","_",".",".",".",".","_",".","_",".",".",".",".","_"],[0,0,0,0,0,0,0,"_",0,0,0,0,"_",0,"_",".",".",".",".",".",".",0,0,0,0,0,0,0,"_",0,0,0,0,"_",0,"_",0,0,0,0,"_"]],[[".",".",".",".",".",".",".",".",".",".",".",".",".",".",".",".",".",".",".",".",".",".",".",".",".",".",".","_",".",".",".",".",".","."],[".",".",".",".",".",".",".",".",".",".",".",".",".",".",".",".",".",".",".",".",".",".",".",".",".",".",".","_",".",".",".",".",".","."],[7,".",".",".",".",".",".",".",7,5,7,".",".",".",".",".",3,5,7,".",".",".",".",".",".",".",".","_",3,2,5,3,2,0],[".",0,0,0,0,0,0,0,".",".",".",0,0,0,0,0,".",".",".",0,0,0,0,0,0,0,0,"_",".",".",".",".",".","."]],[[".","_",".",".",".",".","_",".",".",".","_",".","_",".",".",".",".",".",".",".","_",".","_",".",".",".",".",".",".","_",".",".","."],[".","_",".",".",".",".","_",".",".",".","_",".","_",".",".",".",".",".",".",".","_",".","_",".",".",".",".",".",".","_",".",".","."],[".","_",".",".",7,5,"_",".",".",".","_",".","_",".",".",".",".",".",".",".","_",".","_",".",7,5,".",".",".","_",".",3,5],[0,"_",0,0,".",".","_",0,3,0,"_",0,"_",3,5,3,2,3,2,0,"_",0,"_",0,".",".",0,3,0,"_",0,".","."]]],"numberofstrings":4,"notes":["F","C","G","D"],"capo":0,"stringnotes":["F2","C2","G1","D1"],"comments":["Intro (Repeat 4x)","Transition (Repeat 2x)","Verse A (Repeat 2x)","Verse B (Repeat 2x)","Verse A (Repeat 2x)","Verse B (Repeat 2x)","Chugdown (Repeat 4x)"," Post Chug (Repeat 4x)","Groove Down (Repeat 4x)"],"timing":[["W","W","W","W","W","W","W","W","W","W","W","W","W","W","W","W","W","W","W","W","W"],["W","W","W","W","W","W","W","W","W","W","W","W","W","W","W","W","W","W","W","W","W","W","W"],["W","W","W","W","W","W","W","W","W","W","W","W","W","W","W","W","W","W","W","W","W","W","W","W","W","W","W","W","W","W","W","W","W","W","W","W","W","W","W","W","W","W","W","W","W","W","W","W"],["W","W","W","W","W","W","W","W","W","W","W","W","W","W","W","W","W","W","W","W","W","W","W","W","W","W","W","W","W","W","W","W","W","W","W","W","W","W","W","W","W","W","W"],["W"],[],["W","W","W","W","W","W","W","W","W","W","W","W","W","W","W","W","W","W","W","W","W","W","W","W","W","W","W","W","W","W","W","W","W","W","W","W","W","W","W","W","W"],["W","W","W","W","W","W","W","W","W","W","W","W","W","W","W","W","W","W","W","W","W","W","W","W","W","W","W","W","W","W","W","W","W","W"],["W","W","W","W","W","W","W","W","W","W","W","W","W","W","W","W","W","W","W","W","W","W","W","W","W","W","W","W","W","W","W","W","W"]],"timingvisible":false,"tabcounter":33,"stave":8,"totalstaves":9,"instrument":"4bass","selectedtuning":"4bass","version":"13"}

Member for

1 month 2 weeks
Submitted by nbush82 on Tue, 2021-10-12 16:15