Mourning Doves (4-String Bass)

01234567891011121314151617181920212223
E
B
G
D
A
E
B
0 1 2 3 4 5 6 7 8 9 10 11 12 13 14 15 16 17 18 19 20 21 22 23
(/) Slide Up  (\) Slide Down  (h) Hammer On  (p) Pull Off  (b) Bend (r) Release (v) Vibrato

Stave 1:

F|-----------------------------------------------------------------------------------------------------
C|-----------------------------------------------------------------------------------------------------
G|--------------3-----5-----------------3--------5-----------------3--------5-----------------3-----5--
D|--0-----------------------0-----------------------------0--------------------------0-----------------

Stave 2:

F|-----------------------------------------------------------------------------------
C|-----------------------------------------------------------------------------------
G|-----------------------------------------------------------------------------------
D|--1-----0--0--0-----0--0--0-----0--0--0-----1--0--1--0--0--0-----0--0--1--3--4--0--

Stave 3:

F|--------------------------------------------------------------------------------------
C|--------------------------------------------------------------------------------------
G|-----------------------------------------------------------------------------------5--
D|-----1-----0--0--0-----0--0--0-----0--0--0-----1--0--1--0--0--0-----0--0--1--3--4-----

Stave 4:

F|-----------------------------------------------------------------------------------
C|-----------------------------------------------------------------------------------
G|-----------------------------------------------------------------------------------
D|--1-----0--0--0-----0--0--0-----0--0--0-----1--0--1--0--0--0-----0--0--1--3--4--0--

Stave 5:

F|--------------------------------------------------------------------------------------------------------
C|--------------------------------------------------------------------------------------------------------
G|--------------------------------------------------------------------------------------------------------
D|--1-----0--0--0-----0--0--0-----0--0--0-----1--0--1--0--0--0-----0--0--1--3--4--0-----1--------------0--

Stave 6 (2x)

F|-----------------------------------------------------------------------------
C|-----------------------------------------------------------------------------
G|--------------5--------------------5--------------------5--------7--5--8--7--
D|--5-----7--8-----8--7--3-----7--8-----8--7--5-----7--8-----8--7--------------

(2x)

F|-----------------------------------------------------------------------------------------------------------------------------------
C|-----------------------------------------------------------------------------------------------------------------------------------
G|--------------------------2--0-----------------------------2--0-----------------------------2-----0--------------------------2--0--
D|--3--------------0-----------------------3-----------0--------------------3-----------0--------------------3-----------0-----------

Stave 8:

F|--------------------------------------------------------------------------------------------------------------
C|--------------------------------------------------------------------------------------------------------------
G|--------------------------------------------------------------------------------------------------------------
D|--0-----------------------------0-----------------------------0--0--------------------------0-----------------

Stave 9 (2x)

F|------------------------------------------------------------------
C|---------------------------------------------------------------5--
G|--7--7--5h7--7--7--7--5--7--8--5--7--7--5h7--7--7--7--5--7--8-----
D|------------------------------------------------------------------

Stave 10 (2x)

F|-----------------------------------------------------------------
C|-----------------------------------------------------------------
G|-----------------------------------------------------------------
D|--0-----------1-----------0-----------1--1--1--1-----4--4--4--4--

Stave 11:

F|--
C|--
G|--
D|--

							http://www.guitartabcreator.com
Chords

Instruments
{"strings":[[[".","_","_","_",".","_",".","_",".","_","_","_",".","_","_",".","_","_",".","_","_",".","_","_",".","_","_",".","_","_",".","_","."],[".","_","_","_",".","_",".","_",".","_","_","_",".","_","_",".","_","_",".","_","_",".","_","_",".","_","_",".","_","_",".","_","."],[".","_","_","_",3,"_",5,"_",".","_","_","_",3,"_","_",5,"_","_",".","_","_",3,"_","_",5,"_","_",".","_","_",3,"_",5],[0,"_","_","_",".","_",".","_",0,"_","_","_",".","_","_",".","_","_",0,"_","_",".","_","_",".","_","_",0,"_","_",".","_","."]],[[".","_",".",".",".","_",".",".",".","_",".",".",".","_",".",".",".",".",".",".","_",".",".",".",".",".","."],[".","_",".",".",".","_",".",".",".","_",".",".",".","_",".",".",".",".",".",".","_",".",".",".",".",".","."],[".","_",".",".",".","_",".",".",".","_",".",".",".","_",".",".",".",".",".",".","_",".",".",".",".",".","."],[1,"_",0,0,0,"_",0,0,0,"_",0,0,0,"_",1,0,1,0,0,0,"_",0,0,1,3,4,0]],[[".",".","_",".",".",".","_",".",".",".","_",".",".",".","_",".",".",".",".",".",".","_",".",".",".",".",".","."],[".",".","_",".",".",".","_",".",".",".","_",".",".",".","_",".",".",".",".",".",".","_",".",".",".",".",".","."],[".",".","_",".",".",".","_",".",".",".","_",".",".",".","_",".",".",".",".",".",".","_",".",".",".",".",".",5],[".",1,"_",0,0,0,"_",0,0,0,"_",0,0,0,"_",1,0,1,0,0,0,"_",0,0,1,3,4,"."]],[[".","_",".",".",".","_",".",".",".","_",".",".",".","_",".",".",".",".",".",".","_",".",".",".",".",".","."],[".","_",".",".",".","_",".",".",".","_",".",".",".","_",".",".",".",".",".",".","_",".",".",".",".",".","."],[".","_",".",".",".","_",".",".",".","_",".",".",".","_",".",".",".",".",".",".","_",".",".",".",".",".","."],[1,"_",0,0,0,"_",0,0,0,"_",0,0,0,"_",1,0,1,0,0,0,"_",0,0,1,3,4,0]],[[".","_",".",".",".","_",".",".",".","_",".",".",".","_",".",".",".",".",".",".","_",".",".",".",".",".",".","_",".","_","_","_","_","."],[".","_",".",".",".","_",".",".",".","_",".",".",".","_",".",".",".",".",".",".","_",".",".",".",".",".",".","_",".","_","_","_","_","."],[".","_",".",".",".","_",".",".",".","_",".",".",".","_",".",".",".",".",".",".","_",".",".",".",".",".",".","_",".","_","_","_","_","."],[1,"_",0,0,0,"_",0,0,0,"_",0,0,0,"_",1,0,1,0,0,0,"_",0,0,1,3,4,0,"_",1,"_","_","_","_",0]],[[".","_",".",".",".",".",".",".","_",".",".",".",".",".",".","_",".",".",".",".",".",".",".",".","."],[".","_",".",".",".",".",".",".","_",".",".",".",".",".",".","_",".",".",".",".",".",".",".",".","."],[".","_",".",".",5,".",".",".","_",".",".",5,".",".",".","_",".",".",5,".",".",7,5,8,7],[5,"_",7,8,".",8,7,3,"_",7,8,".",8,7,5,"_",7,8,".",8,7,".",".",".","."]],[[".","_","_","_","_",".","_","_",".",".","_","_","_",".","_","_","_",".","_",".",".","_","_","_",".","_","_","_",".","_",".","_",".","_","_",".","_","_","_",".","_",".","."],[".","_","_","_","_",".","_","_",".",".","_","_","_",".","_","_","_",".","_",".",".","_","_","_",".","_","_","_",".","_",".","_",".","_","_",".","_","_","_",".","_",".","."],[".","_","_","_","_",".","_","_",2,0,"_","_","_",".","_","_","_",".","_",2,0,"_","_","_",".","_","_","_",".","_",2,"_",0,"_","_",".","_","_","_",".","_",2,0],[3,"_","_","_","_",0,"_","_",".",".","_","_","_",3,"_","_","_",0,"_",".",".","_","_","_",3,"_","_","_",0,"_",".","_",".","_","_",3,"_","_","_",0,"_",".","."]],[[".","_","_","_","_","_","_","_","_","_",".","_","_","_","_","_","_","_","_","_",".",".","_","_","_","_","_","_","_","_",".","_","_","_","_","_"],[".","_","_","_","_","_","_","_","_","_",".","_","_","_","_","_","_","_","_","_",".",".","_","_","_","_","_","_","_","_",".","_","_","_","_","_"],[".","_","_","_","_","_","_","_","_","_",".","_","_","_","_","_","_","_","_","_",".",".","_","_","_","_","_","_","_","_",".","_","_","_","_","_"],[0,"_","_","_","_","_","_","_","_","_",0,"_","_","_","_","_","_","_","_","_",0,0,"_","_","_","_","_","_","_","_",0,"_","_","_","_","_"]],[[".",".",".",".",".",".",".",".",".",".",".",".",".",".",".",".",".",".",".",".",".",".",".","."],[".",".",".",".",".",".",".",".",".",".",".",".",".",".",".",".",".",".",".",".",".",".",".",5],[7,7,5,"h",7,7,7,7,5,7,8,5,7,7,5,"h",7,7,7,7,5,7,8,"."],[".",".",".",".",".",".",".",".",".",".",".",".",".",".",".",".",".",".",".",".",".",".",".","."]],[[".","_","_","_",".","_","_","_",".","_","_","_",".",".",".",".","_",".",".",".","."],[".","_","_","_",".","_","_","_",".","_","_","_",".",".",".",".","_",".",".",".","."],[".","_","_","_",".","_","_","_",".","_","_","_",".",".",".",".","_",".",".",".","."],[0,"_","_","_",1,"_","_","_",0,"_","_","_",1,1,1,1,"_",4,4,4,4]],[[],[],[],[]]],"numberofstrings":4,"notes":["F","C","G","D"],"capo":0,"stringnotes":["F2","C2","G1","D1"],"comments":["Stave 1:","Stave 2:","Stave 3:","Stave 4:","Stave 5:","Stave 6 (2x)","(2x)","Stave 8:","Stave 9 (2x)","Stave 10 (2x)","Stave 11:"],"timing":[["W","W","W","W","W","W","W","W","W","W","W","W","W","W","W","W","W","W","W","W","W","W","W","W","W","W","W","W","W","W","W","W","W"],["W","W","W","W","W","W","W","W","W","W","W","W","W","W","W","W","W","W","W","W","W","W","W","W","W","W","W"],[null,"W","W","W","W","W","W","W","W","W","W","W","W","W","W","W","W","W","W","W","W","W","W","W","W","W","W","W"],["W","W","W","W","W","W","W","W","W","W","W","W","W","W","W","W","W","W","W","W","W","W","W","W","W","W","W"],["W","W","W","W","W","W","W","W","W","W","W","W","W","W","W","W","W","W","W","W","W","W","W","W","W","W","W","W","W","W","W","W","W","W"],["W","W","W","W","W","W","W","W","W","W","W","W","W","W","W","W","W","W","W","W","W","W","W","W","W"],["W","W","W","W","W","W","W","W","W","W","W","W","W","W","W","W","W","W","W","W","W","W","W","W","W","W","W","W","W","W","W","W","W","W","W","W","W","W","W","W","W","W","W"],["W","W","W","W","W","W","W","W","W","W","W","W","W","W","W","W","W","W","W","W","W","W","W","W","W","W","W","W","W","W","W","W","W","W","W","W"],["W","W","W",null,"W","W","W","W","W","W","W","W","W","W","W",null,"W","W","W","W","W","W","W","W"],["W","W","W","W","W","W","W","W","W","W","W","W","W","W","W","W","W","W","W","W","W"],[]],"timingvisible":false,"tabcounter":0,"stave":10,"totalstaves":11,"instrument":"4bass","selectedtuning":"4bass","version":"13"}

Member for

1 month 2 weeks
Submitted by nbush82 on Thu, 2021-10-21 19:26