Blinking Through Time Lapse Photograpy (4 string bass)

01234567891011121314151617181920212223
E
B
G
D
A
E
B
0 1 2 3 4 5 6 7 8 9 10 11 12 13 14 15 16 17 18 19 20 21 22 23
(/) Slide Up  (\) Slide Down  (h) Hammer On  (p) Pull Off  (b) Bend (r) Release (v) Vibrato

Intro (2x)

F|--------------------------------------------------------------------------------------------------
C|--------------------------------------------------------------------------------------------------
G|--------------------------------------3--3--3--3--------------------------------------------------
D|--0--0--0--0--3--3--3--3--0--0--0--0--------------0--0--0--0--3--3--3--3--0--0--0--0--3--0--5--2--

Verse A (2x)

F|-----------------------------------------------------------------------------------------------------------------------------------------------------
C|-----------------------------------------------------------------------------------------------------------------------------------------------------
G|--------7--5--------------------------------7--5--------------------------------------7--5--------------------------------7--5-----------------------
D|--0--0--------0--0--3--0--0--0--0--0--0--0--------0--0--3--3--3--3--5--5--5--5--0--0--------0--0--3--0--0--0--0--0--0--0--------0--0--3--0--0--5--0--

Verse B (2x)

F|--------------------------------------------------------------------------------------------------
C|--------------------------------------------------------------------------------------------------
G|--------------------------5--5--5--5--5--5--5--5--------------------------------------------------
D|--0--0--0--0--0--0--0--0--------------------------0--0--0--0--0--0--0--0--5--5--5--5--7--7--7--7--

PreChorus

F|------------------------------------------------------------------------------------------------------
C|------------------------------------------------------------------------------------------------------
G|------------------------------------------------------------------------------------------------------
D|--3--3--3--3--3--3--3--3--5--5--5--5--5--5--5--5--7--7--7--7--7--7--7--7--8--8--8--8--10--10--10--10--

Chorus (2x)

F|-----------------------------------------------------------------------------------------------------------
C|-----------------------------------------------------------------------------------------------------------
G|-----------------------------------------------------------------------------------------------------------
D|-----0-----------3--------------0-----------3--------------0--------------3--------------0--------------3--

Breakdown (8x)

F|-----------------------------------------------------------------
C|-----------------------------------------------------------------
G|-----------------------------------------------------------------
D|--0-----0--0--0--0-----0--0--0--0-----0--0--0--0--0--0--0--0-----

Transition

F|--------------------------------------------------------------------------
C|--------------------------------------------------------------------------
G|--------------------------------------------------------------------------
D|--0--------0--0--0--------------0-----------0--0--0--------3--0--5--2-----

Verse A (2x)

F|-----------------------------------------------------------------------------------------------------------------------------------------------------
C|-----------------------------------------------------------------------------------------------------------------------------------------------------
G|--------7--5--------------------------------7--5--------------------------------------7--5--------------------------------7--5-----------------------
D|--0--0--------0--0--3--0--0--0--0--0--0--0--------0--0--3--3--3--3--5--5--5--5--0--0--------0--0--3--0--0--0--0--0--0--0--------0--0--3--0--0--5--0--

Verse B (2x)

F|-----------------------------------------------------------------------------------------------------
C|-----------------------------------------------------------------------------------------------------
G|-----------------------------5--5--5--5--5--5--5--5--------------------------------------------------
D|-----0--0--0--0--0--0--0--0--------------------------0--0--0--0--0--0--0--0--5--5--5--5--7--7--7--7--

PreChorus

F|------------------------------------------------------------------------------------------------------
C|------------------------------------------------------------------------------------------------------
G|------------------------------------------------------------------------------------------------------
D|--3--3--3--3--3--3--3--3--5--5--5--5--5--5--5--5--7--7--7--7--7--7--7--7--8--8--8--8--10--10--10--10--

Chorus Outro (5x)

F|-----------------------------------------------------------------------------------------
C|-----------------------------------------------------------------------------------------
G|-----------------------------------------------------------------------------------------
D|--0-----------3-----------0-----------3-----------0-----------3-----------0-----------3--

							http://www.guitartabcreator.com
Chords

Instruments
{"strings":[[[".",".",".",".",".",".",".",".",".",".",".",".",".",".",".",".",".",".",".",".",".",".",".",".",".",".",".",".",".",".",".","."],[".",".",".",".",".",".",".",".",".",".",".",".",".",".",".",".",".",".",".",".",".",".",".",".",".",".",".",".",".",".",".","."],[".",".",".",".",".",".",".",".",".",".",".",".",3,3,3,3,".",".",".",".",".",".",".",".",".",".",".",".",".",".",".","."],[0,0,0,0,3,3,3,3,0,0,0,0,".",".",".",".",0,0,0,0,3,3,3,3,0,0,0,0,3,0,5,2]],[[".",".",".",".",".",".",".",".",".",".",".",".",".",".",".",".",".",".",".",".",".",".",".",".",".",".",".",".",".",".",".",".",".",".",".",".",".",".",".",".",".",".",".",".",".",".",".",".","."],[".",".",".",".",".",".",".",".",".",".",".",".",".",".",".",".",".",".",".",".",".",".",".",".",".",".",".",".",".",".",".",".",".",".",".",".",".",".",".",".",".",".",".",".",".",".",".",".","."],[".",".",7,5,".",".",".",".",".",".",".",".",".",".",7,5,".",".",".",".",".",".",".",".",".",".",".",".",7,5,".",".",".",".",".",".",".",".",".",".",7,5,".",".",".",".",".",".","."],[0,0,".",".",0,0,3,0,0,0,0,0,0,0,".",".",0,0,3,3,3,3,5,5,5,5,0,0,".",".",0,0,3,0,0,0,0,0,0,0,".",".",0,0,3,0,0,5,0]],[[".",".",".",".",".",".",".",".",".",".",".",".",".",".",".",".",".",".",".",".",".",".",".",".",".",".",".",".",".",".",".","."],[".",".",".",".",".",".",".",".",".",".",".",".",".",".",".",".",".",".",".",".",".",".",".",".",".",".",".",".",".",".",".","."],[".",".",".",".",".",".",".",".",5,5,5,5,5,5,5,5,".",".",".",".",".",".",".",".",".",".",".",".",".",".",".","."],[0,0,0,0,0,0,0,0,".",".",".",".",".",".",".",".",0,0,0,0,0,0,0,0,5,5,5,5,7,7,7,7]],[[".",".",".",".",".",".",".",".",".",".",".",".",".",".",".",".",".",".",".",".",".",".",".",".",".",".",".",".",".",".",".","."],[".",".",".",".",".",".",".",".",".",".",".",".",".",".",".",".",".",".",".",".",".",".",".",".",".",".",".",".",".",".",".","."],[".",".",".",".",".",".",".",".",".",".",".",".",".",".",".",".",".",".",".",".",".",".",".",".",".",".",".",".",".",".",".","."],[3,3,3,3,3,3,3,3,5,5,5,5,5,5,5,5,7,7,7,7,7,7,7,7,8,8,8,8,10,10,10,10]],[["_",".","_","_","_",".","_","_","_","_",".","_","_","_",".","_","_","_","_",".","_","_","_","_",".","_","_","_","_",".","_","_","_","_","."],["_",".","_","_","_",".","_","_","_","_",".","_","_","_",".","_","_","_","_",".","_","_","_","_",".","_","_","_","_",".","_","_","_","_","."],["_",".","_","_","_",".","_","_","_","_",".","_","_","_",".","_","_","_","_",".","_","_","_","_",".","_","_","_","_",".","_","_","_","_","."],["_",0,"_","_","_",3,"_","_","_","_",0,"_","_","_",3,"_","_","_","_",0,"_","_","_","_",3,"_","_","_","_",0,"_","_","_","_",3]],[[".","_",".",".",".",".","_",".",".",".",".","_",".",".",".",".",".",".",".",".","_"],[".","_",".",".",".",".","_",".",".",".",".","_",".",".",".",".",".",".",".",".","_"],[".","_",".",".",".",".","_",".",".",".",".","_",".",".",".",".",".",".",".",".","_"],[0,"_",0,0,0,0,"_",0,0,0,0,"_",0,0,0,0,0,0,0,0,"_"]],[[".","_","_",".",".",".","_","_","_","_",".","_","_","_",".",".",".","_","_",".",".",".",".","_"],[".","_","_",".",".",".","_","_","_","_",".","_","_","_",".",".",".","_","_",".",".",".",".","_"],[".","_","_",".",".",".","_","_","_","_",".","_","_","_",".",".",".","_","_",".",".",".",".","_"],[0,"_","_",0,0,0,"_","_","_","_",0,"_","_","_",0,0,0,"_","_",3,0,5,2,"_"]],[[".",".",".",".",".",".",".",".",".",".",".",".",".",".",".",".",".",".",".",".",".",".",".",".",".",".",".",".",".",".",".",".",".",".",".",".",".",".",".",".",".",".",".",".",".",".",".",".","."],[".",".",".",".",".",".",".",".",".",".",".",".",".",".",".",".",".",".",".",".",".",".",".",".",".",".",".",".",".",".",".",".",".",".",".",".",".",".",".",".",".",".",".",".",".",".",".",".","."],[".",".",7,5,".",".",".",".",".",".",".",".",".",".",7,5,".",".",".",".",".",".",".",".",".",".",".",".",7,5,".",".",".",".",".",".",".",".",".",".",7,5,".",".",".",".",".",".","."],[0,0,".",".",0,0,3,0,0,0,0,0,0,0,".",".",0,0,3,3,3,3,5,5,5,5,0,0,".",".",0,0,3,0,0,0,0,0,0,0,".",".",0,0,3,0,0,5,0]],[[".",".",".",".",".",".",".",".",".",".",".",".",".",".",".",".",".",".",".",".",".",".",".",".",".",".",".",".",".",".",".",".","."],[".",".",".",".",".",".",".",".",".",".",".",".",".",".",".",".",".",".",".",".",".",".",".",".",".",".",".",".",".",".",".",".","."],[".",".",".",".",".",".",".",".",".",5,5,5,5,5,5,5,5,".",".",".",".",".",".",".",".",".",".",".",".",".",".",".","."],[".",0,0,0,0,0,0,0,0,".",".",".",".",".",".",".",".",0,0,0,0,0,0,0,0,5,5,5,5,7,7,7,7]],[[".",".",".",".",".",".",".",".",".",".",".",".",".",".",".",".",".",".",".",".",".",".",".",".",".",".",".",".",".",".",".","."],[".",".",".",".",".",".",".",".",".",".",".",".",".",".",".",".",".",".",".",".",".",".",".",".",".",".",".",".",".",".",".","."],[".",".",".",".",".",".",".",".",".",".",".",".",".",".",".",".",".",".",".",".",".",".",".",".",".",".",".",".",".",".",".","."],[3,3,3,3,3,3,3,3,5,5,5,5,5,5,5,5,7,7,7,7,7,7,7,7,8,8,8,8,10,10,10,10]],[[".","_","_","_",".","_","_","_",".","_","_","_",".","_","_","_",".","_","_","_",".","_","_","_",".","_","_","_","."],[".","_","_","_",".","_","_","_",".","_","_","_",".","_","_","_",".","_","_","_",".","_","_","_",".","_","_","_","."],[".","_","_","_",".","_","_","_",".","_","_","_",".","_","_","_",".","_","_","_",".","_","_","_",".","_","_","_","."],[0,"_","_","_",3,"_","_","_",0,"_","_","_",3,"_","_","_",0,"_","_","_",3,"_","_","_",0,"_","_","_",3]]],"numberofstrings":4,"notes":["F","C","G","D"],"capo":0,"stringnotes":["F2","C2","G1","D1"],"comments":["Intro (2x)","Verse A (2x)","Verse B (2x)","PreChorus","Chorus (2x)","Breakdown (8x)","Transition","Verse A (2x)","Verse B (2x)","PreChorus","Chorus Outro (5x)"],"timing":[["W","W","W","W","W","W","W","W","W","W","W","W","W","W","W","W","W","W","W","W","W","W","W","W","W","W","W","W","W","W","W","W"],["W","W","W","W","W","W","W","W","W","W","W","W","W","W","W","W","W","W","W","W","W","W","W","W","W","W","W","W","W","W","W","W","W","W","W","W","W","W","W","W","W","W","W","W","W","W","W","W","W"],["S","S","S","S","S","S","S","S","S","S","S","S","S","S","S","S","S","S","S","S","S","S","S","S","S","S","S","S","S","S","S","S"],["S","S","S","S","S","S","S","S","S","S","S","S","S","S","S","S","S","S","S","S","S","S","S","S","S","S","S","S","S","S","S","S"],["S","S","S","S","S","S","S","S","S","S","S","S","S","S","S","S","S","S","S","S","S","S","S","S","S","S","S","S","S","S","S","S","S","S","S"],["S","S","S","S","S","S","S","S","S","S","S","S","S","S","S","S","S","S","S","S","S"],["S","S","S","S","S","S","S","S","S","S","S","S","S","S","S","S","S","S","S","S","S","S","S","S"],["W","W","W","W","W","W","W","W","W","W","W","W","W","W","W","W","W","W","W","W","W","W","W","W","W","W","W","W","W","W","W","W","W","W","W","W","W","W","W","W","W","W","W","W","W","W","W","W","W"],[null,"W","W","W","W","W","W","W","W","W","W","W","W","W","W","W","W","W","W","W","W","W","W","W","W","W","W","W","W","W","W","W","W"],["W","W","W","W","W","W","W","W","W","W","W","W","W","W","W","W","W","W","W","W","W","W","W","W","W","W","W","W","W","W","W","W"],["W","W","W","W","W","W","W","W","W","W","W","W","W","W","W","W","W","W","W","W","W","W","W","W","W","W","W","W","W"]],"timingvisible":false,"tabcounter":29,"stave":10,"totalstaves":11,"instrument":"4bass","selectedtuning":"4bass","version":"13"}

Member for

1 month 2 weeks
Submitted by nbush82 on Thu, 2021-10-21 17:43