Sound will begin in 5 seconds

Sunsets on a Saturday

Chords
01234567891011121314151617181920212223
E
B
G
D
A
E
B
0 1 2 3 4 5 6 7 8 9 10 11 12 13 14 15 16 17 18 19 20 21 22 23
Song Science #1: How Pros Use 6 Chords to Write Hit Songs
(/) Slide Up  (\) Slide Down  (h) Hammer On  (p) Pull Off  (b) Bend (r) Release (v) Vibrato

Capo Fret 5

(W|WW) Whole (H|HH) Half (Q|QQ) Quarter (E|EE) 8th (S|SS) 16th (T|TT) 32nd (X|XX) 64th

Stave 1:
t: E E E E E E E E EE E E EE E E EE E WW E E E E E E E E W
E|------------------------------------------------------------------------------------
B|--9--9--9--9--9--9--9--9--10--9--9--10--9--9--10--9------8--7--7--8--7--7--8--7-----
G|-----------------------------------------------------10--------------------------8--
D|------------------------------------------------------------------------------------
A|------------------------------------------------------------------------------------
E|------------------------------------------------------------------------------------

Stave 2:
t: EE E E EE E E EE E WW E E E E E E E E W H HH
E|-------------------------------------------------------------------
B|-------------------------------------------------------------------
G|--10--9--9--10--9--9--10--9------8--7--7--8--7--7--8--7------------
D|-----------------------------10--------------------------8--8--10--
A|-------------------------------------------------------------------
E|-------------------------------------------------------------------

Stave 3:
t: E E E E E E E E EE E E EE E E EE E WW E E E E E E E E W
E|------------------------------------------------------------------------------------
B|------------------------------------------------------------------------------------
G|--9--9--9--9--9--9--9--9--10--9--9--10--9--9--10--9------8--7--7--8--7--7--8--7-----
D|-----------------------------------------------------10--------------------------8--
A|------------------------------------------------------------------------------------
E|------------------------------------------------------------------------------------

Stave 4:
t: EE E E EE E E EE E WW E E E E E E E E E H W
E|------------------------------------------------------------------
B|------------------------------------------------------------------
G|--10--9--9--10--9--9--10--9------8--7--7--8--7--7--8--7-----7-----
D|-----------------------------10--------------------------8--8-----
A|---------------------------------------------------------------7--
E|---------------------------------------------------------------8--

Stave 5:
t: Q E E E E E E Q E E E E E E Q E E E E E E Q E E E E E E
E|--------------------------------------------------------------------------------------
B|--6--6--6--6--6--6--6-----------------------6--6--6--6--6--6--6--6--6--6--6--6--6--6--
G|--------------------------------------------8--8--8--8--8--8--8--7--7--7--7--7--7--7--
D|--7--7--7--7--7--7--7-----------------------7--7--7--7--7--7--7--8--8--8--8--8--8--8--
A|--8--8--8--8--8--8--8--7--7--7--7--7--7--7--------------------------------------------
E|-----------------------8--8--8--8--8--8--8--------------------------------------------

Stave 6:
t: Q E E E E E E Q E E E E E E Q E E E E E E H H
E|----------------------------------------------------------------------
B|--6--6--6--6--6--6--6-----------------------6--6--6--6--6--6--6--------
G|-------------------------------------------8--8--8--8--8--8--8--7-----
D|--7--7--7--7--7--7--7-----------------------7--7--7--7--7--7--7--8-----
A|--8--8--8--8--8--8--8--7--7--7--7--7--7--7--------------------------7--
E|----------------------8--8--8--8--8--8--8--------------------------8--

Stave 7:
t: E E E E E E E E E E E E E E E E E E E E E E E E E E E E H W
E|-------------------------------------------------------------------------------------------
B|--x--x--x--x--x--x--x--x--------------------------x--x--x--x--x--x--x--x--x--x--x--x--------
G|-------------------------------------------------x--x--x--x--x--x--x--x--x--x--x--x--7-----
D|--x--x--x--x--x--x--x--x--------------------------x--x--x--x--x--x--x--x--x--x--x--x--8-----
A|--x--x--x--x--x--x--x--x--x--x--x--x--x--x--x--x-----------------------------------------7--
E|-------------------------x--x--x--x--x--x--x--x-----------------------------------------8--

http://www.guitartabcreator.com
Guitar Tab Creator is intended to store guitar tab created through the tool. It currently does not support in-line text editing. Any text you place in here will be lost. If you need to comment on your tab, please use the "Tab Notes" section located below.