Wilcza Zamiec by EbolGra - Tab by NawradneZ (Work in Progress)

01234567891011121314151617181920212223
E
B
G
D
A
E
B
0 1 2 3 4 5 6 7 8 9 10 11 12 13 14 15 16 17 18 19 20 21 22 23
(/) Slide Up  (\) Slide Down  (h) Hammer On  (p) Pull Off  (b) Bend (r) Release (v) Vibrato

Capo Fret 5

Intro

E|-----------------------------------------------------------------------------------------------------------------------
B|-----1--0--1--0--1--0--1--0--1--------------------------1--0--1--0--1--0--1--0--1--------------3-----1--0--------------
G|-----------2--0--2--0--2--0--2-----------------------------------0--2-----------2--------------------0-----------------
D|--------2-----------------------2-----------------------------3-----------------------3-----------0--------------------
A|-----0-----------------------------2--3--0-----3-----------3-----------------------------3-----------------------------
E|--------------------------------------------------------1--------------------------------------3-----------------------

Intro v2

E|-----------------------------------------------------------------------------------------------------------------------
B|-----1--0--1--0--1--0--1--0--1--------------------------1--0--1--0--1--0--1--0--1--------------0-----------------------
G|-----------2--0--2--0--2--0--2-----------------------------------0--2-----------2--------------2-----------------------
D|--------2-----------------------2-----------------------------3-----------------------3--------0-----------------------
A|-----0-----------------------------2--3--0-----3-----------3-----------------------------3-----2-----------------------
E|--------------------------------------------------------1--------------------------------------------------------------

Verse

E|-----0--0--------0--------------------------------------0--0-----3-----------0--------------------------0-----
B|-----------------1--3--------0--1--0--1--0-----------------1--------1--3--3--0-----3-----0--1-----3-----------
G|--------------2-----------2-----------2--------0-----------------2-----------------------0--------------0-----
D|-----------2-----------2-----------3--------------------------2-----------2-----------2--------------1--------
A|--------0-----------0-----------0--------0-----------------0-----------0-----------3--------------2-----------
E|--------------------------------------------------------------------------------------------------------------

							http://www.guitartabcreator.com
Chords

Tab Notes
Instruments
{"strings":[[["_","_","_","_","_","_","_","_","_","_","_","_","_","_","_","_","_","_","_","_","_","_","_","_","_","_","_","_","_","_","_","_","_","_","_","_","_","_","_"],["_",1,0,1,0,1,0,1,0,1,"_","_","_","_","_","_","_","_",1,0,1,0,1,0,1,0,1,"_","_","_","_",3,"_",1,0,"_","_","_","_"],["_","_","_",2,0,2,0,2,0,2,"_","_","_","_","_","_","_","_","_","_","_",0,2,"_","_","_",2,"_","_","_","_","_","_",0,"_","_","_","_","_"],["_","_",2,"_","_","_","_","_","_","_",2,"_","_","_","_","_","_","_","_","_",3,"_","_","_","_","_","_","_",3,"_","_","_",0,"_","_","_","_","_","_"],["_",0,"_","_","_","_","_","_","_","_","_",2,3,0,"_",3,"_","_","_",3,"_","_","_","_","_","_","_","_","_",3,"_","_","_","_","_","_","_","_","_"],["_","_","_","_","_","_","_","_","_","_","_","_","_","_","_","_","_","_",1,"_","_","_","_","_","_","_","_","_","_","_","_",3,"_","_","_","_","_","_","_"]],[["_","_","_","_","_","_","_","_","_","_","_","_","_","_","_","_","_","_","_","_","_","_","_","_","_","_","_","_","_","_","_","_","_","_","_","_","_","_","_"],["_",1,0,1,0,1,0,1,0,1,"_","_","_","_","_","_","_","_",1,0,1,0,1,0,1,0,1,"_","_","_","_",0,"_","_","_","_","_","_","_"],["_","_","_",2,0,2,0,2,0,2,"_","_","_","_","_","_","_","_","_","_","_",0,2,"_","_","_",2,"_","_","_","_",2,"_","_","_","_","_","_","_"],["_","_",2,"_","_","_","_","_","_","_",2,"_","_","_","_","_","_","_","_","_",3,"_","_","_","_","_","_","_",3,"_","_",0,"_","_","_","_","_","_","_"],["_",0,"_","_","_","_","_","_","_","_","_",2,3,0,"_",3,"_","_","_",3,"_","_","_","_","_","_","_","_","_",3,"_",2,"_","_","_","_","_","_","_"],["_","_","_","_","_","_","_","_","_","_","_","_","_","_","_","_","_","_",1,"_","_","_","_","_","_","_","_","_","_","_","_","_","_","_","_","_","_","_","_"]],[["_",0,0,"_","_",0,"_","_","_","_","_","_","_","_","_","_","_","_",0,0,"_",3,"_","_","_",0,"_","_","_","_","_","_","_","_",0,"_"],["_","_","_","_","_",1,3,"_","_",0,1,0,1,0,"_","_","_","_","_",1,"_","_",1,3,3,0,"_",3,"_",0,1,"_",3,"_","_","_"],["_","_","_","_",2,"_","_","_",2,"_","_","_",2,"_","_",0,"_","_","_","_","_",2,"_","_","_","_","_","_","_",0,"_","_","_","_",0,"_"],["_","_","_",2,"_","_","_",2,"_","_","_",3,"_","_","_","_","_","_","_","_",2,"_","_","_",2,"_","_","_",2,"_","_","_","_",1,"_","_"],["_","_",0,"_","_","_",0,"_","_","_",0,"_","_",0,"_","_","_","_","_",0,"_","_","_",0,"_","_","_",3,"_","_","_","_",2,"_","_","_"],["_","_","_","_","_","_","_","_","_","_","_","_","_","_","_","_","_","_","_","_","_","_","_","_","_","_","_","_","_","_","_","_","_","_","_","_"]]],"numberofstrings":6,"notes":["E","B","G","D","A","E","B"],"capo":"5","stringnotes":["E4","B3","G3","D3","A2","E2"],"comments":["Intro","Intro v2","Verse"],"timing":[[null,"W",null,null,null,null,null,null,null,null,null,null,null,null,null,null,null,null,null,"W","W","W","W","W","W","W","W","W","W","W","W","W","W","W","W","W","W",null,null,null,null,null,null,null,null,null,null,"W","W"],[null,null,null,null,null,null,null,null,null,null,null,null,null,null,null,null,null,"W",null,null,null,null,null,null,null,null,null,null,null,null,null,null,null,null,null,"W",null,null,"W"],[null,null,null,null,null,null,null,null,null,null,null,null,null,null,null,null,null,null,null,null,null,null,null,null,null,null,null,null,"W","W","W","W","W",null,null,"W","W"]],"timingvisible":false,"tabcounter":36,"stave":2,"totalstaves":3,"instrument":"6guitar","selectedtuning":"6_standard","version":"13"}

Member for

1 week 2 days
Submitted by nawradnez on Sun, 2021-01-10 12:05