JJ johnson 2

01234567891011121314151617181920212223
E
B
G
D
A
E
B
0 1 2 3 4 5 6 7 8 9 10 11 12 13 14 15 16 17 18 19 20 21 22 23
(/) Slide Up  (\) Slide Down  (h) Hammer On  (p) Pull Off  (b) Bend (r) Release (v) Vibrato

Stave 1:

G|-----5--3--2--------------2--7--5--2--------------2--9--7--2-----------1--2--10--7--9--7--9--7--5--4--7--5--2--3--5--7--8--7--5--3--2--3--5--3-----
D|--5-----------3--5--3--5--------------3--2--3--5--------------5--3--5---------------------------------------------------------------------------5--
A|---------------------------------------------------------------------------------------------------------------------------------------------------
E|---------------------------------------------------------------------------------------------------------------------------------------------------

Stave 2:

G|-----------2--------------2--9--7--5--2--------2--9--7--2--------10--12--14--10--12--10--12--12--14--10--12--10--12--12--14--7--12--9--10--9--3-----9--10--8--8--8--6--8--6--
D|--2--3--5-----3--5--3--5-----------------3--5--------------5--3----------------------------------------------------------------------------------5---------------------------
A|-----------------------------------------------------------------------------------------------------------------------------------------------------------------------------
E|-----------------------------------------------------------------------------------------------------------------------------------------------------------------------------

							http://www.guitartabcreator.com
Chords

Instruments
{"strings":[[[".",5,3,2,".",".",".",".",2,7,5,2,".",".",".",".",2,9,7,2,".",".",".",1,2,10,7,9,7,9,7,5,4,7,5,2,3,5,7,8,7,5,3,2,3,5,3,"."],[5,".",".",".",3,5,3,5,".",".",".",".",3,2,3,5,".",".",".",".",5,3,5,".",".",".",".",".",".",".",".",".",".",".",".",".",".",".",".",".",".",".",".",".",".",".",".",5],[".",".",".",".",".",".",".",".",".",".",".",".",".",".",".",".",".",".",".",".",".",".",".",".",".",".",".",".",".",".",".",".",".",".",".",".",".",".",".",".",".",".",".",".",".",".",".","."],[".",".",".",".",".",".",".",".",".",".",".",".",".",".",".",".",".",".",".",".",".",".",".",".",".",".",".",".",".",".",".",".",".",".",".",".",".",".",".",".",".",".",".",".",".",".",".","."]],[[".",".",".",2,".",".",".",".",2,9,7,5,2,".",".",2,9,7,2,".",".",10,12,14,10,12,10,12,12,14,10,12,10,12,12,14,7,12,9,10,9,3,".",9,10,8,8,8,6,8,6],[2,3,5,".",3,5,3,5,".",".",".",".",".",3,5,".",".",".",".",5,3,".",".",".",".",".",".",".",".",".",".",".",".",".",".",".",".",".",".",".",".",".",5,".",".",".",".",".",".",".","."],[".",".",".",".",".",".",".",".",".",".",".",".",".",".",".",".",".",".",".",".",".",".",".",".",".",".",".",".",".",".",".",".",".",".",".",".",".",".",".",".",".",".",".",".",".",".",".",".",".",".","."],[".",".",".",".",".",".",".",".",".",".",".",".",".",".",".",".",".",".",".",".",".",".",".",".",".",".",".",".",".",".",".",".",".",".",".",".",".",".",".",".",".",".",".",".",".",".",".",".",".",".","."]]],"numberofstrings":4,"notes":["G","D","A","E"],"capo":0,"stringnotes":["G2","D2","A1","E1"],"comments":["Stave 1:","Stave 2:"],"timing":[["W","W","W","W","W","W","W","W","W","W","W","W","W","W","W","W","W","W","W","W","W","W","W","W","W","W","W","W","W","W","W","W","W","W","W","W","W","W","W","W","W","W","W","W","W","W","W","W"],["W","W","W","W","W","W","W","W","W","W","W","W","W","W","W","W","W","W","W","W","W","W","W","W","W","W","W","W","W","W","W","W","W","W","W","W","W","W","W","W","W","W","W","W","W","W","W","W","W","W","W"]],"timingvisible":false,"tabcounter":51,"stave":1,"totalstaves":2,"instrument":"4bass","selectedtuning":"4bass","version":"13"}

Member for

1 month
Submitted by Nautabass on Fri, 2021-10-22 11:34