Sound will begin in 5 seconds

Oasis of truth

01234567891011121314151617181920212223
E
B
G
D
A
E
B
0 1 2 3 4 5 6 7 8 9 10 11 12 13 14 15 16 17 18 19 20 21 22 23
(/) Slide Up  (\) Slide Down  (h) Hammer On  (p) Pull Off  (b) Bend (r) Release (v) Vibrato

Stave 1:

E|-------------------------------------------------------
B|-------------------------------------------------------
G|-------------------------------------------------------
D|-------------------------------------------------------
A|-------------------------------------------------------
E|--12-----12/14\12--12--9--7--5--5\2/5-----5--7--9--12--

Stave 2:

E|-----------------------------------------------------------------------
B|-----------------------------------------------------------------------
G|-----------------------------------------------------------------------
D|-----------------------------------------------------------------------
A|--------------12--14/16--16--14--12------------------------------------
E|--12--12--14-------------------------14--14--12--9--12--12--12--9--12--

Stave 3:

E|----------------------------------------------------------------------------------------
B|----------------------------------------------------------------------------------------
G|--------------------------------------------------------16------------------------------
D|---------------------------------14--16--16/18--18--18------18--16--14--14--14------14--
A|--------------12--14/16--16--16-------------------------------------------------16------
E|--12--12--14----------------------------------------------------------------------------

http://www.guitartabcreator.com
Guitar Tab Creator is intended to store guitar tab created through the tool. It currently does not support in-line text editing. Any text you place in here will be lost. If you need to comment on your tab, please use the "Tab Notes" section located below.