Sound will begin in 5 seconds

Shred Song

Chords
01234567891011121314151617181920212223
E
B
G
D
A
E
B
0 1 2 3 4 5 6 7 8 9 10 11 12 13 14 15 16 17 18 19 20 21 22 23
Song Science #1: How Pros Use 6 Chords to Write Hit Songs
(/) Slide Up  (\) Slide Down  (h) Hammer On  (p) Pull Off  (b) Bend (r) Release (v) Vibrato

Stave 1:

C |--------------------------------------------------------------------------------------
G |--------------------------------------------------------------------------------------
Eb|--19p15---------19p15--19p15---------19p15--14p10---------14p10--14p10---------14p10--
Bb|---------19p15----------------19p15----------------14p10----------------14p10---------
F |--------------------------------------------------------------------------------------
Bb|--------------------------------------------------------------------------------------

Stave 2:

C |--------------------------------------------------------------------------------------------------------
G |--------------------------------------------------------------------------------------------------------
Eb|--12p9--------12p9--12p9--------12p9--10p7--------10p7--10p7--------10p7--10p7--------10p7--10p7--------
Bb|--------12p8--------------12p8--------------10p7--------------10p7--------------10p7--------------10p7--
F |--------------------------------------------------------------------------------------------------------
Bb|--------------------------------------------------------------------------------------------------------

Stave 3:

C |--------------------------------------------------------------------------------------------------
G |--------------------------------------------------------------------------------------------------
Eb|--12p9--------12p9--12p9--------12p9--12p9--------10p7--------10p7--10p7--------10p7--10p7--------
Bb|--------12p8--------------12p8--------------12p8--------10p7--------------10p7--------------10p7--
F |--------------------------------------------------------------------------------------------------
Bb|--------------------------------------------------------------------------------------------------

Stave 4:

C |----------------
G |------------11--
Eb|--------10------
Bb|--8h12----------
F |----------------
Bb|----------------

Stave 5:

C |--------------------------------------------------------------------------------------------------------
G |--------------------------------------------------------------------------------------------------------
Eb|--12p9--------12p9--12p9--------12p9p12--9--------10p7--------10p7--10p7--------10p7--10p7--------------
Bb|--------12p8--------------12p8--------------12p8--------10p7--------------10p7--------------10p7--------
F |--------------------------------------------------------------------------------------------------------
Bb|--------------------------------------------------------------------------------------------------------

Stave 6:

C |---------------------------------------17p13---------17p13--17p13----------------
G |----------------------------------------------17p13----------------17p13---------
Eb|--------------------------------------------------------------------------14p10--
Bb|--------------------------------10h14--------------------------------------------
F |--------8h12--------------8h12---------------------------------------------------
Bb|--8h12--------8h12--8h12---------------------------------------------------------

Stave 7:

C |----------------------------------------17p13---------17p13-----------------------
G |-----------------------------------------------17p13---------17p13----------------
Eb|---------------------------------10h14------------------------------14p10---------
Bb|--------------------------10h14--------------------------------------------14p10--
F |--------8h12--------8h12----------------------------------------------------------
Bb|--8h12--------8h12----------------------------------------------------------------

Stave 8:

C |-------------------------------------------22p18-------------------------------------
G |--------------------------------------------------22p18---------20p17----------------
Eb|----------------10h14---------------14h17----------------19p14---------19p15---------
Bb|---------10h14---------12h15p14h15--------------------------------------------19p14--
F |--10h12------------------------------------------------------------------------------
Bb|-------------------------------------------------------------------------------------

Stave 9:

C |----------------13h17------------------------17v--------20v------------------------------
G |---------13h17---------15v--------13v------------------------------20v--------18v--------
Eb|--12h14----------------------------------------------------------------------------------
Bb|-----------------------------------------------------------------------------------------
F |-----------------------------------------------------------------------------------------
Bb|-----------------------------------------------------------------------------------------

Stave 10:

C |----------------13h17--13v---------------------------------------20----------------
G |---------13h17-------------------------------18b20--18b20b18---------------18v-----
Eb|--12h14---------------------------14v----------------------------------------------
Bb|-----------------------------------------------------------------------------------
F |-----------------------------------------------------------------------------------
Bb|-----------------------------------------------------------------------------------

Stave 11:

C |--18b20--18b20b18--------17--18--17------17------------------------------
G |-------------------------------------18------18--17--18--17\13------13v--
Eb|----------------------------------------------------------------14-------
Bb|-------------------------------------------------------------------------
F |-------------------------------------------------------------------------
Bb|-------------------------------------------------------------------------

Stave 12:

C |----------------13h17--13v-------------------17v--------20v------------------------
G |---------13h17--------------------17v------------------------------20v--------18v--
Eb|--12h14----------------------------------------------------------------------------
Bb|-----------------------------------------------------------------------------------
F |-----------------------------------------------------------------------------------
Bb|-----------------------------------------------------------------------------------

Stave 13:

C |--18b20--18b20b18--------17--18--17------17------------------------------------
G |-------------------------------------18------18--17--18--17\13------13/15\13v--
Eb|----------------------------------------------------------------14-------------
Bb|-------------------------------------------------------------------------------
F |-------------------------------------------------------------------------------
Bb|-------------------------------------------------------------------------------

Stave 14:

C |--------------------------------------------------------------------------------------------------------
G |--------------------------------------------------------------------------------------------------------
Eb|--19p15---------19p15--19p15---------19p15--14p10---------14p10--14p10---------14p10--12p9--------12p9--
Bb|---------19p15----------------19p15----------------14p10----------------14p10---------------12p8--------
F |--------------------------------------------------------------------------------------------------------
Bb|--------------------------------------------------------------------------------------------------------

Stave 15:

C |--------------------------------------------------------------------------------------------
G |--------------------------------------------------------------------------------------------
Eb|--12p9--------12p9--10p7--------10p7--10p7--------10p7--10p7--------10p7--10p8--------10p7--
Bb|--------12p8--------------10p7--------------10p7--------------10p7--------------10p7--------
F |--------------------------------------------------------------------------------------------
Bb|--------------------------------------------------------------------------------------------

Stave 16:

C |--------------------------------------------------------------------------------------
G |--------------------------------------------------------------------------------------
Eb|--19p15---------19p15--19p15---------19p15--14p10---------14p10--14p10---------14p10--
Bb|---------19p15----------------19p15----------------14p10----------------14p10---------
F |--------------------------------------------------------------------------------------
Bb|--------------------------------------------------------------------------------------

Stave 17:

C |--------------------------------------------------------------------------------------
G |--------------------------------------------------------------------------------------
Eb|--12p9--------12p9--12p9--------12p9--10p7--------10p7--10p7--------10p7--10p7--------
Bb|--------12p8--------------12p8--------------10p7--------------10p7--------------10p7--
F |--------------------------------------------------------------------------------------
Bb|--------------------------------------------------------------------------------------

Stave 18:

C |--------------------------------------15p12-------------------------12/15\13v--------
G |---------------------------------------------14p11-----------11h14-------------------
Eb|--10p7--------10p7--10p7--------10p7----------------12p9h12--------------------------
Bb|--------10p7--------------10p7-------------------------------------------------------
F |-------------------------------------------------------------------------------------
Bb|-------------------------------------------------------------------------------------

Stave 19:

C |------------------------------------------------------------------
G |------------------------------------------------------------------
Eb|--9---------7-----7--------7--------7--------7-----7--------7-----
Bb|--8---------7-----7--------7--------7--------7-----7--------7-----
F |--10--------8-----8--------8--------8--------8-----8--------8-----
Bb|------------------------------------------------------------------

Stave 20:

C |-------------------------------------------------------0--------------0-----
G |---------------------10--------10--------10-----10--------10------10--------
Eb|--7--------10--------10--------10--------10-----10------------10------------
Bb|--7--------9---------0---------0---------0------0---------------------------
F |--8--------10--------8---------8---------8------8---------------------------
Bb|----------------------------------------------------------------------------

http://www.guitartabcreator.com
Guitar Tab Creator is intended to store guitar tab created through the tool. It currently does not support in-line text editing. Any text you place in here will be lost. If you need to comment on your tab, please use the "Tab Notes" section located below.