Sound will begin in 5 seconds

Pieces & Stuff

Chords
01234567891011121314151617181920212223
E
B
G
D
A
E
B
0 1 2 3 4 5 6 7 8 9 10 11 12 13 14 15 16 17 18 19 20 21 22 23
Song Science #1: How Pros Use 6 Chords to Write Hit Songs
(/) Slide Up  (\) Slide Down  (h) Hammer On  (p) Pull Off  (b) Bend (r) Release (v) Vibrato

Stave 1:

E|--5-----------5-----------0-----1-----0-----------
B|--6-----6-----------6-----3-----------------1-----
G|--7-----------------------3-----------------------
D|--0-----------------------------------------------
A|--------------------------------------------------
E|--------------------------------------------------

Stave 2:

E|---------------------------------------------------------
B|---------------------------------------------------------
G|---------------------12p9--------12p9--10p7--------10p7--
D|--------------10h14--------12p8--------------10p7--------
A|--------8h12---------------------------------------------
E|--8h12---------------------------------------------------

Stave 3:

E|-----------------------------------------------------------------
B|-----------------------------------------------------------------
G|----------------14h17--19p15---------19p15--14p10---------14p10--
D|--12h15--14h15----------------19p15----------------14p10---------
A|-----------------------------------------------------------------
E|-----------------------------------------------------------------

http://www.guitartabcreator.com
Guitar Tab Creator is intended to store guitar tab created through the tool. It currently does not support in-line text editing. Any text you place in here will be lost. If you need to comment on your tab, please use the "Tab Notes" section located below.