Sound will begin in 5 seconds

Pic or it Didn't Aspen

Chords
01234567891011121314151617181920212223
E
B
G
D
A
E
B
0 1 2 3 4 5 6 7 8 9 10 11 12 13 14 15 16 17 18 19 20 21 22 23
Song Science #1: How Pros Use 6 Chords to Write Hit Songs
(/) Slide Up  (\) Slide Down  (h) Hammer On  (p) Pull Off  (b) Bend (r) Release (v) Vibrato

Stave 1:

E|---------------------------------------------
B|---------------------------------------------
G|---------------------------------------------
D|--12-----------7-----------5-----------8-----
G|--12-----------7-----------5-----------8-----
E|--12-----------7-----------5-----------8-----

Stave 2:

E|---------------------------------------------------------------
B|---------------------------------------------------------------
G|---------------------------------------------------------------
D|--12-----------7-----------5-----------8--8--8--8--------8-----
G|--12-----------7-----------5-----------8--8--8--8--------8-----
E|--12-----------7-----------5-----------8--8--8--8--------8-----

Stave 3:

E|-----------------------------------------------------------------
B|-----------------------------------------------------------------
G|-----------------------------------------------------------------
D|--12-----12--12-----12-----12--12-----7-----7--7-----7-----9--9--
G|--12-----12--12-----12-----12--12-----7-----7--7-----7-----7--7--
E|--12-----12--12-----12-----12--12-----7-----7--7-----7-----7--7--

Stave 4:

E|----------------------------------------------------------------------
B|----------------------------------------------------------------------
G|----------------------------------------------------------------------
D|--5-----5--5-----9--9-----5--5--------8-----8--8-----12--12-----8--8--
G|--5-----5--5-----5--5-----5--5--------8-----8--8-----8---8------8--8--
E|--5-----5--5-----5--5-----5--5--------8-----8--8-----8---8------8--8--

Stave 5:

E|--------------------------------------------0--------------------0--
B|--------0-----------0-----------0--------------0--0--------------0--
G|-----------------7-----------------------7--------7--------------0--
D|-----5--------5--------5-----5--------5-----------5--------5-----2--
G|--5--------5--------------5--------5--------------5--------5-----2--
E|-----------------------------------------------------------5--------

Stave 6:

E|--------------------------------------------0--------------------0--------------2--
B|--------0-----------0-----------0--------------0--0--------------0--------------0--
G|-----------------7-----------------------7--------7--------------0--------7-----0--
D|-----5--------5--------5-----5--------5-----------5-----------5--2--------5-----2--
G|--5--------5--------------5--------5--------------5-----------5--2--------5-----2--
E|--------------------------------------------------------------5-----------5-----0--

Stave 7:

E|---------------------------------------------
B|---------------------------------------------
G|-----------------------------------14v-------
D|--12-----12---------12--14-----12-------14v--
G|--12-----12--14-----12--12-----12------------
E|--12-----12--12-----12--12-----12------------

http://www.guitartabcreator.com
Guitar Tab Creator is intended to store guitar tab created through the tool. It currently does not support in-line text editing. Any text you place in here will be lost. If you need to comment on your tab, please use the "Tab Notes" section located below.