Sound will begin in 5 seconds

Camping With Guns

Chords
01234567891011121314151617181920212223
E
B
G
D
A
E
B
0 1 2 3 4 5 6 7 8 9 10 11 12 13 14 15 16 17 18 19 20 21 22 23
Song Science #1: How Pros Use 6 Chords to Write Hit Songs
(/) Slide Up  (\) Slide Down  (h) Hammer On  (p) Pull Off  (b) Bend (r) Release (v) Vibrato

Stave 1:

E|--------------------------------0--------2--------
B|--------------0--------2-----------2--------0-----
G|--------0--------0--------0-----------0-----------
D|-----2-----2--------2--------2--------------------
A|--3-----------------------------------------------
E|--------------------------------------------------

Stave 2:

E|--------------------------------------------------
B|--------------------------0--------------------0--
G|-----------------0-----0-----0-----------0--------
D|--------4-----4-----4-----------4-----4-----4-----
A|-----2-----2-----------------------2--------------
E|--3-----------------------------------------------

Stave 3:

E|--------------------------------0--------2--------
B|--------------0--------2-----------2--------2-----
G|--------0--------0--------0-----------0-----------
D|-----2-----2--------2--------2--------------------
A|--3-----------------------------------------------
E|--------------------------------------------------

Stave 4:

E|-----------------------------------------0--------
B|-----------------------0--------2-----------2-----
G|--------------0-----------0--------0--------------
D|--------4--------4-----------4--------4-----------
A|-----2--------------2-----------------------------
E|--3--------3--------------------------------------

Stave 5:

E|--------------|--------------------------------------|-----------------------
B|--------------|--------------------0-----------------|-----------------0-----
G|--------0-----|-----------0-----0--------------0-----|-----------0--------0--
D|-----2--------|--------2-----2--------------2--------|--------2-----2--------
A|--3-----------|-----3--------------------3-----------|-----3-----------------
E|--------------|--------------------------------------|-----------------------

Stave 6:

E|--------------|--------------------------------------|-----------------------
B|--------------|--------------------0-----------------|-----------------0-----
G|--------0-----|-----------0-----0--------------0-----|-----------0--------0--
D|-----4--------|--------4-----4--------------4--------|--------4-----4--------
A|--5-----------|-----5--------------------5-----------|-----5-----------------
E|--------------|--------------------------------------|-----------------------

Stave 7:

E|--------------|--------------------------------------|-----------------------
B|--------------|--------------------3-----------------|-----------------3-----
G|--------0-----|-----------0-----4--------------0-----|-----------0--------4--
D|-----2--------|--------2-----2--------------2--------|--------2-----2--------
A|--3-----------|-----3--------------------3-----------|-----3-----------------
E|--------------|--------------------------------------|-----------------------

Stave 8:

E|--------------|--------------------------------------|-----------------------
B|--------0-----|-----------0--------6-----------------|-----------0-----6-----
G|--------------|-----------------7--------------0-----|--------------------7--
D|-----5--------|--------5-----5--------------5--------|--------5-----5--------
A|--6-----------|-----6--------------------6-----------|-----6-----------------
E|--------------|--------------------------------------|-----------------------

Stave 9:

E|-----------------------------------------------------------------------------------------------------
B|-----------------------------------------------------------------------------------------------------
G|--------0--------0--------0--------4--------4--------0--------0--------7--------7--------------------
D|-----2--------2--------2--------2--------2--------2--------4--------5--------5-----------5--------5--
A|--3--------3--------3--------3--------3--------3--------5--------6--------6-----------3--------3-----
E|-----------------------------------------------------------------------------------4--------4--------

Stave 10:

E|-----------------------------------------------------------------------------------------------------
B|-----------------------------------------------------------------------------------------------------
G|--------0--------0--------0--------4--------4--------0--------0--------7--------7--------7--------7--
D|-----2--------2--------2--------2--------2--------2--------4--------5--------5--------5--------5-----
A|--3--------3--------3--------3--------3--------3--------5--------6--------6--------6--------6--------
E|-----------------------------------------------------------------------------------------------------

Stave 11:

E|----------------------------------------------------------------------------------------
B|----------------------------------------------------------------------------------------
G|--------0---------11---------12---------12---------12---------12---------12---------12--
D|-----9---------9----------9----------9----------9----------9----------9----------9------
A|--9--------10---------10---------10---------10---------10---------10---------10---------
E|----------------------------------------------------------------------------------------

Stave 12:

E|--5-----------0-----------
B|--3-----------5-----------
G|--3-----------0-----------
D|--0-----------3-----------
A|--------------------------
E|--------------------------

Stave 13:

E|-----------------------------------------------------------------------------------------------------
B|--------------------------3--------------------------3--------------------------6--------------------
G|--------0--------4-----------------0--------4-----------------0--------7--------------------------3--
D|-----2--------2--------2--------2--------2--------2--------4--------5--------5-----------5-----------
A|--3--------3--------3--------3--------3--------3--------5--------6--------6-----------3--------3-----
E|-----------------------------------------------------------------------------------4--------4--------

Stave 14:

E|--------------------------------------------------------------------------------------------
B|-----------------3--------------------------2--------------------------------------------6--
G|--------0-----------------4--------0-----------------4--------0--------0--------7-----------
D|-----2--------2--------2--------2--------2--------2--------2--------4--------5--------5-----
A|--3--------3--------3--------3--------3--------3--------3--------5--------6--------6--------
E|--------------------------------------------------------------------------------------------

Stave 15:

E|------------------------------------------------------------------------------------------------------
B|------------------------------------------------------------------------------------------------------
G|--------0---------11---------12---------12---------12---------12--------9--------9--------9--------9--
D|-----9---------9----------9----------9----------9----------9---------5--------5--------5--------5-----
A|--9--------10---------10---------10---------10---------10---------7--------7--------7--------7--------
E|------------------------------------------------------------------------------------------------------

Stave 16:

E|--5-----------0-----------0--------------
B|--3-----------5-----------0--------------
G|--3-----------0-----------0-----------0--
D|--0-----------3-----------2-----2--------
A|--------------------------3--------------
E|-----------------------------------------

Stave 17:

E|--------------------------------------------------------------------------------
B|--------------3--------------------3--------------------3-----------------------
G|--------4--------4-----------4--------4-----------4--------4-----------4-----4--
D|-----2-----2--------------2-----2--------------2-----2--------------2-----2-----
A|--3--------------------3--------------------3--------------------3--------------
E|--------------------------------------------------------------------------------

Stave 18:

E|--------------------------------------------------0--------------------------
B|--------------6--------------------6--------------------------------------0--
G|--------7--------7-----------7--------------7--------7-----------7-----7-----
D|-----5-----5--------------5-----5--------5-----5--------5-----5-----5--------
A|--6--------------------6--------------7--------------------7-----------------
E|-----------------------------------------------------------------------------

Stave 19:

E|--------------0--------------------------
B|--------------------------------------0--
G|--------7--------7-----------7-----7-----
D|-----5-----5--------5-----5-----5--------
A|--7--------------------7-----------------
E|-----------------------------------------

Stave 20:

E|--------------------------------------------------------------------------------
B|--------------3--------------------3--------------------3-----------------------
G|--------4--------4-----------4--------4-----------4--------4-----------4-----4--
D|-----2-----2--------------2-----2--------------2-----2--------------2-----2-----
A|--3--------------------3--------------------3--------------------3--------------
E|--------------------------------------------------------------------------------

Stave 21:

E|--------------0-----------------------------------------------------------
B|-----------------------------------0--------------6--------------------6--
G|--------7--------7-----------7--------------7--------7-----------7--------
D|-----5-----5--------5-----5-----5--------5-----5--------------5-----5-----
A|--7--------------------7--------------6--------------------6--------------
E|--------------------------------------------------------------------------

Stave 22:

E|-----------------------------------------
B|--6-----6-----6-----6-----6-----6--6--6--
G|--7-----7-----7-----7-----7-----7--7--7--
D|--5-----5-----5-----5-----5-----5--5--5--
A|--6-----6-----6-----6-----6-----6--6--6--
E|--------------------4-----4-----4--4--4--

Stave 23:

E|--0--------------------------0--------------------------
B|--3--------3-----6-----------3--------3-----6-----6-----
G|--4--------4-----7-----3-----4--------4-----7-----7-----
D|--2-----2--2-----5-----5-----2-----2--2-----5-----5-----
A|--3-----3--3-----6-----3-----3-----3--3-----6-----6-----
E|--------0--------------4-----------0--------------4-----

Stave 24:

E|--0--------------------------0--------------------------
B|--3--------3-----6-----------3--------3-----6-----------
G|--4--------4-----7-----3-----4--------4-----7-----9-----
D|--2-----2--2-----5-----5-----2-----2--2-----5-----5-----
A|--3-----3--3-----6-----3-----3-----3--3-----6-----7-----
E|--------0--------------4-----------0--------------0-----

http://www.guitartabcreator.com
Guitar Tab Creator is intended to store guitar tab created through the tool. It currently does not support in-line text editing. Any text you place in here will be lost. If you need to comment on your tab, please use the "Tab Notes" section located below.