Sound will begin in 5 seconds

Bailey - Paramnesia

01234567891011121314151617181920212223
E
B
G
D
A
E
B
0 1 2 3 4 5 6 7 8 9 10 11 12 13 14 15 16 17 18 19 20 21 22 23
Song Science #1: How Pros Use 6 Chords to Write Hit Songs
(/) Slide Up  (\) Slide Down  (h) Hammer On  (p) Pull Off  (b) Bend (r) Release (v) Vibrato

Stave 1:

Eb|----------------------------------------------------------------------------------------------
Bb|--------------------------3p---0-----------------------------------------------------2-----3--
F |-------------------------------------------------------------------------3-----0--------------
Bb|--0--0-----0--0-----0--0-------------0--0-----0-----0--0-----0-----0--------------------------

Stave 2:

Eb|-----------------------------------------------------------------------
Bb|-----------------------------------------------------------------------
F |-----------------------------------------------------------------------
Bb|--0--0-----0-----0--0-----12\0-----0--------0--------0--------0--------

Stave 3:

Eb|--------------------------------------------------
Bb|--------------------------------------------------
F |--8-----7-----0-----3-----0-----3-----7-----8-----
Bb|--------------------------------------------------

Stave 4:

Eb|--------------------------------------------------------
Bb|--------------------------------------------------------
F |--------------------------------------7-----------------
Bb|--8--------8--------8--------8--------------------12\1--

Stave 5:

Eb|-----------------------------------------------------------------------------------------------
Bb|--------------------------------------------------------------------------------------3-----2--
F |--------------------------------------------------------------------------3-----0--------------
Bb|--0--0-----0--0-----0--0--2-----3-----0--0-----0-----0--0-----0-----0--------------------------

Stave 6:

Eb|-----------------------------------------------------------------------------------------
Bb|-----------------------------------------------------------------------------------------
F |-----------------------------------------------------------------------------------------
Bb|--0--0-----0-----0--0-----0-----0--0--0--0-----0--0--0--0-----0--0--0--0-----0--0--0--0--

Stave 7:

Eb|----------------------------------------------------------------------------------------------
Bb|-----------------------------2/5-----------------------------------------3-----2-----------3--
F |-------------------------------------------------------------------------------------0--------
Bb|--0--0-----0--0-----0--0-------------0--0-----0-----0--0-----0-----0--------------------------

Stave 8:

Eb|-----------------------------------------------------------------------------------
Bb|--------------------------1--------------------------------------------------------
F |-----------------------------------------------------------------------------------
Bb|--0--0-----0-----0--0-----------0--0--0--0-----0--0--0--0-----0--0--0--0-----1/10--

Stave 9:

Eb|--------------------------------------------------
Bb|--------------------------------------------------
F |--------------------------------------------------
Bb|--0--0--------0--------0--------0-----------------

Stave 10:

Eb|--------------------------------------------------
Bb|--------------------------2--1--------------1--2--
F |-----------------------0--------0--3--0--3--------
Bb|--0--0--------0-----------------------------------

Stave 11:

Eb|--------------------------------------------------
Bb|--------------------------------------------------
F |--0--0--------0--------0--------3-----------------
Bb|--------------------------------------------------

Stave 12:

Eb|-----------------------------------------------
Bb|-----------------------------------------------
F |-----------------------------------------------
Bb|--3--3--------3--------5--------5--------------

Stave 13:

Eb|-----------------------------------------------------------------------------------------------
Bb|-----------------------------------------------------------------------------------------------
F |--------------------------------------------------------------------------3-----0--------------
Bb|--0--0--0-----0--0--0-----2-----3-----0--0--0-----0--0--0-----0--0--0-----------------3-----2--

Stave 14:

Eb|-----------------------------------------------------------------------------------------------
Bb|--------------------------3-----2--------------------------------------------------------------
F |-----------------------------------------------------------------------------------------------
Bb|--0--0--0-----0--0--0-----------------0--0--0-----0--0--0-----0--0--0-----0--0--0-----0--0--0--

Stave 15:

Eb|-------------------------------------------------------------------------------------------------------
Bb|--0---------------------------------------------------3------------------------------------------------
F |-----------------------0---------------------------------------------------0---------------------------
Bb|-----------0--0--0--------------0--0--0-----2b3b2--------------0--0--0--------------0--0--0-----2b3b2--

Stave 16:

Eb|--------------------------------------------------------------------
Bb|--3--------------3--------------3-----------------------------------
F |-----------------------------------------------3--------------------
Bb|-----0--------------0--------------0--------------0-----------------

Stave 17:

Eb|--------------------------------------------------------------------------------------
Bb|--------------------------------------------------------------------------------------
F |--------------------------------------------------------------------------------------
Bb|--3--2--0--------3--2--0--------3--2--0--------3--2--0--------3--2--0--0--3--2--0--0--

Stave 18:

Eb|-----------------------------------------------------------
Bb|-----------------------------------------------------------
F |-----------------------------------------------------------
Bb|--0--0--------------------0-----0-----0--0--0-----0-----0--

Stave 19:

Eb|-----------------------------------------------------------------
Bb|-----------------------------------------------------------------
F |-----------------------------------------------------------------
Bb|--0--0--0--0--------------------0--0--0--0-----0-----0-----0/12--

http://www.guitartabcreator.com
Guitar Tab Creator is intended to store guitar tab created through the tool. It currently does not support in-line text editing. Any text you place in here will be lost. If you need to comment on your tab, please use the "Tab Notes" section located below.