Sound will begin in 5 seconds

Antonio - Rhythm Chops

Chords
01234567891011121314151617181920212223
E
B
G
D
A
E
B
0 1 2 3 4 5 6 7 8 9 10 11 12 13 14 15 16 17 18 19 20 21 22 23
Song Science #1: How Pros Use 6 Chords to Write Hit Songs
(/) Slide Up  (\) Slide Down  (h) Hammer On  (p) Pull Off  (b) Bend (r) Release (v) Vibrato

Stave 1:

C |-----------------------------------------------------------------------
G |-----------------------------------------------------------------------
Eb|--3--------2--------2-----2-----2-----2--------2--------2-----2-----2--
Bb|--5--------3--------3-----3-----3-----3--------3--------3-----3-----3--
F |--7-----7--5-----7--5-----5-----5-----5-----5--5-----5--5-----5-----5--
Bb|--0-----0--0-----0--0-----0-----0-----0-----0--0-----0--0-----0-----0--

Stave 2:

C |--0--------0--------5-----5-----5-----5-----------------------5--------
G |--1--------1--------6-----6-----6-----6-----------------------6--------
Eb|--2--------0--------7-----7-----7-----7-----------------------7--------
Bb|--2--------2--------8-----8-----8-----8-----------------8-----8-----8--
F |--0-----0--0-----0--0-----0-----0--5--5-----5--5-----5--5-----------5--
Bb|-----------------------------------------------5--------5-----------5--

Stave 3:

C |-----------------------------------------------------------------
G |-----------------------------------------------------------------
Eb|--3--------2--------2--------2--------2--------2--------2--------
Bb|--5--------3--------3--------3--------3--------3--------3--------
F |--7--------5--------5--------5-----5--5--------5--------5--------
Bb|--0--0--0--0--0--0--0--0--0--0--0-----3--3--3--3--3--3--3--3--3--

Stave 4:

C |-----------------------5--------5--------------------------------------
G |-----1--------1--------6--------6--------6--------6--------------------
Eb|--2--0--------2--------7--------7--------7--------7--------------------
Bb|--3--2--------2--------8--------8--------7--------7--------------------
F |--5--3--------3--------5--------5--------8--------8--------------------
Bb|--3--2--2--2--2--2--2-----5--5-----5--5-----0--0-----0--0--0-----------

Stave 5:

C |--------------------------------------------------------------------
G |--------------------------------------------------------------------
Eb|--------------------------------------------------------------------
Bb|--------------------------------------------------------------------
F |--------------------------------------------------------------------
Bb|--0--0--------------0--------------0--------------0--0--------------

Stave 6:

C |--------------------5--------------------------------------------
G |--------------------6--------------------------------------------
Eb|--------------------7--------------------------------------------
Bb|--7--7--------------8--------------5--------------0--------------
F |--8--8--------------0--------------7--------------0--------------
Bb|--0--0-----------------------------0--------------0--------------

Stave 7:

C |--------------------------------0-----5-----5--5--5-----------------5-----
G |--6-----6--6--6-----------6-----------6-----6--6--6-----------------------
Eb|--7-----7--7--7-----7-----------------7-----7--7--7-----------7-----------
Bb|--7-----7--7--7-----------------------8-----8--8--8-----8-----------------
F |--8-----8-----8-----------------------------------------------------------
Bb|--------------------------------------------------------------------------

Stave 8:

C |-------------------------------------------------------------------------
G |-------------------------------------------------------------------------
Eb|--9------9---9---9----------------9-----7-----7--7--7-----7-----7--7--7--
Bb|--8------8---8---8-------------8--------7-----7--7--7-----7-----7--7--7--
F |--10-----10--10--10-----10--------------8-----8--8--8-----8-----8--8--8--
Bb|--8------8---8---8----------------------0-----0--0--0-----0-----0--0--0--

http://www.guitartabcreator.com
Guitar Tab Creator is intended to store guitar tab created through the tool. It currently does not support in-line text editing. Any text you place in here will be lost. If you need to comment on your tab, please use the "Tab Notes" section located below.