Sound will begin in 5 seconds

Antonio - Hammer Melody

Chords
01234567891011121314151617181920212223
E
B
G
D
A
E
B
0 1 2 3 4 5 6 7 8 9 10 11 12 13 14 15 16 17 18 19 20 21 22 23
Song Science #1: How Pros Use 6 Chords to Write Hit Songs
(/) Slide Up  (\) Slide Down  (h) Hammer On  (p) Pull Off  (b) Bend (r) Release (v) Vibrato

Stave 1:

C |--------------------------------------------------------------------------------------
G |--------------------------------------------------------------------------------------
Eb|--19p15---------19p15--19p15----------------14p10---------14p10--14p10----------------
Bb|---------19p15----------------19p15--19p15---------14p10----------------14p10--14p10--
F |--------------------------------------------------------------------------------------
Bb|--------------------------------------------------------------------------------------

Stave 2:

C |-------------------------------------------------------------------------------------------------------
G |-------------------------------------------------------------------------------------------------------
Eb|--12p9--------12p9--12p9--------------10p7--------10p7--10p7--------------10p7--------10p7-------------
Bb|--------12p8--------------12p8--12p8--------10p7--------------10p7--10p7--------10p7--------10v-----v--
F |-------------------------------------------------------------------------------------------------------
Bb|-------------------------------------------------------------------------------------------------------

Stave 3:

C |---------------------------------------------------------------------------------------------
G |---------------------------------------------------------------------------------------------
Eb|--19p15---------19p15--19p15---------19p15--19p15--------------------------------------------
Bb|---------19p15----------------19p15----------------19p15--19p15---------19p15--19p15---------
F |-----------------------------------------------------------------19p15----------------19p15--
Bb|---------------------------------------------------------------------------------------------

Stave 4:

C |---------------------------------------
G |---------------------------------------
Eb|-----------------------------------15--
Bb|--19p15--19p15-------------15--19------
F |----------------19p15--17--------------
Bb|---------------------------------------

Stave 5:

C |------------------------------------------------------------------------
G |------------------------------------------------------------------------
Eb|--19p15---------19p15--19p15---------19p15--19p15-----------------------
Bb|---------19p15----------------19p15----------------19p15--19p15---------
F |-----------------------------------------------------------------19p15--
Bb|------------------------------------------------------------------------

Stave 6:

C |----------------------------------
G |----------------------------------
Eb|----------------------------------
Bb|----------------------------------
F |--19p15--19p15---------19p15------
Bb|----------------19p15---------19--

Stave 7:

C |-----------------------------------------17p13-------------------------------------
G |------------------------------------------------17p13------------------------------
Eb|----------------------------------10h14----------------14p10--14p10----------------
Bb|--------------10h14--------10h14-------------------------------------14p10---------
F |--------8h12---------8h12---------------------------------------------------12--0--
Bb|--8h12-----------------------------------------------------------------------------

Stave 8:

C |--------------------------------------------------------------------------
G |--6-----6-----6-----6-----6-----6-----8---------8---8---6-----6-----6-----
Eb|--7-----7-----7-----7-----7-----7-----9---------9---9---7-----7-----7-----
Bb|--7-----7-----7-----7-----7-----7-----8---------8---8---7-----7-----7-----
F |--8-----8-----8-----8-----8-----8-----10--------10--10--8-----8-----8-----
Bb|--0-----0-----0-----0-----0-----0-----8---------8---8---------------------

Stave 9:

C |--------------------------------------------------------8------8------8---
G |--6-----6-----6-----6-----6-----6-----8---------8---8---10-----10-----10--
Eb|--7-----7-----7-----7-----7-----7-----9---------9---9---10-----10-----10--
Bb|--7-----7-----7-----7-----7-----7-----8---------8---8---x------x------x---
F |--8-----8-----8-----8-----8-----8-----10--------10--10--8------8------8---
Bb|--0-----0-----0-----0-----0-----0-----8---------8---8---0------0------0---

Stave 10:

C |--------------------------------------------------------------------------------------
G |--18p15---------18p15--18p15---------18p15--------------------------------------------
Eb|---------15p14----------------15p14---------17p15---------17p15--17p15---------17p15--
Bb|---------------------------------------------------19p15----------------19p15---------
F |--------------------------------------------------------------------------------------
Bb|--------------------------------------------------------------------------------------

Stave 11:

C |--------------------------------------------------------------------------------------
G |--------------------------------------------------------------------------------------
Eb|--15p14---------15p14--15p14---------15p14--14p10---------14p10--14p10---------14p10--
Bb|---------15p12----------------15p12----------------12p10----------------12p10---------
F |--------------------------------------------------------------------------------------
Bb|--------------------------------------------------------------------------------------

Stave 12:

C |--21p18-----------------------------------
G |---------20p17----------------------------
Eb|----------------18p15---------------------
Bb|-----------------------17v-----------/19--
F |------------------------------------------
Bb|------------------------------------------

http://www.guitartabcreator.com
Guitar Tab Creator is intended to store guitar tab created through the tool. It currently does not support in-line text editing. Any text you place in here will be lost. If you need to comment on your tab, please use the "Tab Notes" section located below.