Thinkin Bout You - Frank Ocean

Chords

01234567891011121314151617181920212223
E
B
G
D
A
E
B
0 1 2 3 4 5 6 7 8 9 10 11 12 13 14 15 16 17 18 19 20 21 22 23
(/) Slide Up  (\) Slide Down  (h) Hammer On  (p) Pull Off  (b) Bend (r) Release (v) Vibrato

Stave 1: Verse 1 pt.1

E|-------------------------------------------------------------
B|------------10--------------6--------------8--------------5--
G|-----9----------------5--------------7--------------5--------
D|--------10---------------7--------------9--------------5-----
A|--8----------------5--------------7--------------------------
E|-------------------------------------------------5-----------

Stave 2: Verse 1 pt.2

E|-------------------------------------------------
B|------------10--------------8--------------8--6--
G|-----9----------------7--------------7--------5--
D|--------10---------------9--------------8-----7--
A|--8----------------7--------------6-----------5--
E|-------------------------------------------------

Stave 3: Prechorus

E|---------------------------------------------------------------------------------------------
B|------------10-----6--------------8-----6---------------10--------------8--------------8--6--
G|-----9-------------5--------7-----------6--------9----------------7--------------7--------5--
D|--------10---------7-----------9--------5-----------10---------------9--------------8-----7--
A|--8----------------5-----7--------------------8----------------7--------------6-----------5--
E|----------------------------------------5----------------------------------------------------

							http://www.guitartabcreator.com
Instruments
{"strings":[[[".",".",".",".","_",".",".",".",".","_",".",".",".",".","_",".",".",".","."],[".",".",".",10,"_",".",".",".",6,"_",".",".",".",8,"_",".",".",".",5],[".",9,".",".","_",".",5,".",".","_",".",7,".",".","_",".",5,".","."],[".",".",10,".","_",".",".",7,".","_",".",".",9,".","_",".",".",5,"."],[8,".",".",".","_",5,".",".",".","_",7,".",".",".","_",".",".",".","."],[".",".",".",".","_",".",".",".",".","_",".",".",".",".","_",5,".",".","."]],[[".",".",".",".","_",".",".",".",".","_",".",".",".",".","."],[".",".",".",10,"_",".",".",".",8,"_",".",".",".",8,6],[".",9,".",".","_",".",7,".",".","_",".",7,".",".",5],[".",".",10,".","_",".",".",9,".","_",".",".",8,".",7],[8,".",".",".","_",7,".",".",".","_",6,".",".",".",5],[".",".",".",".","_",".",".",".",".","_",".",".",".",".","."]],[[".",".",".",".","_",".","_",".",".",".",".","_",".","_",".",".",".",".","_",".",".",".",".","_",".",".",".",".","."],[".",".",".",10,"_",6,"_",".",".",".",8,"_",6,"_",".",".",".",10,"_",".",".",".",8,"_",".",".",".",8,6],[".",9,".",".","_",5,"_",".",7,".",".","_",6,"_",".",9,".",".","_",".",7,".",".","_",".",7,".",".",5],[".",".",10,".","_",7,"_",".",".",9,".","_",5,"_",".",".",10,".","_",".",".",9,".","_",".",".",8,".",7],[8,".",".",".","_",5,"_",7,".",".",".","_",".","_",8,".",".",".","_",7,".",".",".","_",6,".",".",".",5],[".",".",".",".","_",".","_",".",".",".",".","_",5,"_",".",".",".",".","_",".",".",".",".","_",".",".",".",".","."]]],"numberofstrings":6,"notes":["E","B","G","D","A","E","B"],"capo":0,"stringnotes":["E4","B3","G3","D3","A2","E2"],"comments":["Stave 1: Verse 1 pt.1","Stave 2: Verse 1 pt.2","Stave 3: Prechorus"],"timing":[["W","W","W","W",null,"W","W","W","W",null,"W","W","W","W",null,"W","W","W","W"],["W","W","W","W",null,"W","W","W","W",null,"W","W","W","W","W"],["W","W","W","W",null,"W",null,"W","W","W","W",null,"W",null,"W","W","W","W",null,"W","W","W","W",null,"W","W","W","W","W"]],"timingvisible":false,"tabcounter":28,"stave":2,"totalstaves":3,"instrument":"6guitar","selectedtuning":"6_standard","version":"13"}

Member for

7 months 2 weeks
Submitted by nataliesungg on Wed, 2020-12-02 16:04