Isn't She Lovely - Stevie Wonder

01234567891011121314151617181920212223
E
B
G
D
A
E
B
0 1 2 3 4 5 6 7 8 9 10 11 12 13 14 15 16 17 18 19 20 21 22 23
(/) Slide Up  (\) Slide Down  (h) Hammer On  (p) Pull Off  (b) Bend (r) Release (v) Vibrato

Stave 1: Verse 1

E|--------------------0-----------------------0--
B|--4-----4-----2-----0-----4-----4-----2-----0--
G|--4-----3-----2-----1-----4-----3-----2-----1--
D|--2-----2-----2-----2-----2-----2-----2-----2--
A|--4-----------------2-----4-----------------2--
E|--------2-----2-----0-----------2-----2-----0--

Stave 2: Verse 1 cont.

E|--0-----4--------------------------0-----
B|--0-----4-----4-----4-----2--2-----0-----
G|--6-----5-----4-----3-----2--2-----1-----
D|--6-----4-----2-----2-----2--2-----2-----
A|--0-----6-----4--------------------2-----
E|--------4-----------2-----2--2-----0-----

Stave 3: riff

E|--------------------------------0-----4--
B|-----------------------5--5-----0-----4--
G|-----------------4--6-----------1-----5--
D|--------2--4--6-----------------2-----4--
A|--2--4--------------------------2-----6--
E|--------------------------------0-----4--

							http://www.guitartabcreator.com
Chords

Instruments
{"strings":[[[".","_",".","_",".","_",0,"_",".","_",".","_",".","_",0],[4,"_",4,"_",2,"_",0,"_",4,"_",4,"_",2,"_",0],[4,"_",3,"_",2,"_",1,"_",4,"_",3,"_",2,"_",1],[2,"_",2,"_",2,"_",2,"_",2,"_",2,"_",2,"_",2],[4,"_",".","_",".","_",2,"_",4,"_",".","_",".","_",2],[".","_",2,"_",2,"_",0,"_",".","_",2,"_",2,"_",0]],[[0,"_",4,"_",".","_",".","_",".",".","_",0,"_"],[0,"_",4,"_",4,"_",4,"_",2,2,"_",0,"_"],[6,"_",5,"_",4,"_",3,"_",2,2,"_",1,"_"],[6,"_",4,"_",2,"_",2,"_",2,2,"_",2,"_"],[0,"_",6,"_",4,"_",".","_",".",".","_",2,"_"],[".","_",4,"_",".","_",2,"_",2,2,"_",0,"_"]],[[".",".",".",".",".",".",".",".",".","_",0,"_",4],[".",".",".",".",".",".",".",5,5,"_",0,"_",4],[".",".",".",".",".",4,6,".",".","_",1,"_",5],[".",".",2,4,6,".",".",".",".","_",2,"_",4],[2,4,".",".",".",".",".",".",".","_",2,"_",6],[".",".",".",".",".",".",".",".",".","_",0,"_",4]]],"numberofstrings":6,"notes":["E","B","G","D","A","E","B"],"capo":0,"stringnotes":["E4","B3","G3","D3","A2","E2"],"comments":["Stave 1: Verse 1","Stave 2: Verse 1 cont.","Stave 3: riff"],"timing":[["W","W","W","W","W","W","W","W","W","W","W","W","W","W","W"],["W","W","W","W","W","W","W","W","W","W","W","W","W"],["W","W","W","W","W","W","W","W","W","W","W","W","W"]],"timingvisible":false,"tabcounter":12,"stave":2,"totalstaves":3,"instrument":"6guitar","selectedtuning":"6_standard","version":"13"}

Member for

1 year 10 months
Submitted by nataliesungg on Wed, 2022-05-18 18:58