Erase - Omar Apollo

01234567891011121314151617181920212223
E
B
G
D
A
E
B
0 1 2 3 4 5 6 7 8 9 10 11 12 13 14 15 16 17 18 19 20 21 22 23
(/) Slide Up  (\) Slide Down  (h) Hammer On  (p) Pull Off  (b) Bend (r) Release (v) Vibrato

Stave 1: Verse 

E|-----------------------------------------------
B|--7-----7-----9-----8-----7-----7-----9-----8--
G|--8-----8-----8-----7-----8-----8-----8-----7--
D|--8-----7-----9-----9-----8-----7-----9-----9--
A|--------------7-----7-----------------7-----7--
E|--7-----7-----------------7-----7--------------

Stave 2: Prechorus x2

E|-----------------------------------------------
B|--4--4--4-----4--4--4-----9--9--9-----8--8--8--
G|--4--4--4-----4--4--4-----8--8--8-----7--7--7--
D|--4--4--4-----6--6--6-----9--9--9-----9--9--9--
A|--------------4--4--4-----7--7--7-----7--7--7--
E|--4--4--4--------------------------------------

Stave 3: Chorus x2

E|-----------------------------------------------
B|--7--7--7-----7--7--7-----9--9--9-----8--8--8--
G|--8--8--8-----8--8--8-----8--8--8-----7--7--7--
D|--8--8--8-----7--7--7-----9--9--9-----9--9--9--
A|--------------------------7--7--7-----7--7--7--
E|--7--7--7-----7--7--7--------------------------

							http://www.guitartabcreator.com
Chords

Instruments
{"strings":[[[".","_",".","_",".","_",".","_",".","_",".","_",".","_","."],[7,"_",7,"_",9,"_",8,"_",7,"_",7,"_",9,"_",8],[8,"_",8,"_",8,"_",7,"_",8,"_",8,"_",8,"_",7],[8,"_",7,"_",9,"_",9,"_",8,"_",7,"_",9,"_",9],[".","_",".","_",7,"_",7,"_",".","_",".","_",7,"_",7],[7,"_",7,"_",".","_",".","_",7,"_",7,"_",".","_","."]],[[".",".",".","_",".",".",".","_",".",".",".","_",".",".","."],[4,4,4,"_",4,4,4,"_",9,9,9,"_",8,8,8],[4,4,4,"_",4,4,4,"_",8,8,8,"_",7,7,7],[4,4,4,"_",6,6,6,"_",9,9,9,"_",9,9,9],[".",".",".","_",4,4,4,"_",7,7,7,"_",7,7,7],[4,4,4,"_",".",".",".","_",".",".",".","_",".",".","."]],[[".",".",".","_",".",".",".","_",".",".",".","_",".",".","."],[7,7,7,"_",7,7,7,"_",9,9,9,"_",8,8,8],[8,8,8,"_",8,8,8,"_",8,8,8,"_",7,7,7],[8,8,8,"_",7,7,7,"_",9,9,9,"_",9,9,9],[".",".",".","_",".",".",".","_",7,7,7,"_",7,7,7],[7,7,7,"_",7,7,7,"_",".",".",".","_",".",".","."]]],"numberofstrings":6,"notes":["E","B","G","D","A","E","B"],"capo":0,"stringnotes":["E4","B3","G3","D3","A2","E2"],"comments":["Stave 1: Verse ","Stave 2: Prechorus x2","Stave 3: Chorus x2"],"timing":[["W",null,"W",null,"W",null,"W",null,"W",null,"W",null,"W",null,"W"],["W","W","W",null,"W","W","W",null,"W","W","W",null,"W","W","W"],["W","W","W",null,"W","W","W",null,"W","W","W",null,"W","W","W"]],"timingvisible":false,"tabcounter":15,"stave":2,"totalstaves":3,"instrument":"6guitar","selectedtuning":"6_standard","version":"13"}

Member for

7 months 2 weeks
Submitted by nataliesungg on Fri, 2020-12-04 17:50