Sound will begin in 5 seconds

The Miner- "Out of the Fear of Dying"

01234567891011121314151617181920212223
E
B
G
D
A
E
B
0 1 2 3 4 5 6 7 8 9 10 11 12 13 14 15 16 17 18 19 20 21 22 23
Song Science #1: How Pros Use 6 Chords to Write Hit Songs
(/) Slide Up  (\) Slide Down  (h) Hammer On  (p) Pull Off  (b) Bend (r) Release (v) Vibrato

Stave 1:

E|-----------------------------|--------------------------------|-----------------------------|--------------------|-------------|--
B|-----------------------------|--------------------------------|-----------------------------|--------------------|-------------|--
G|--7-----------------------5--|--7-----5--4--------------------|-----2--2-----------------2--|--2--------------5--|--5----------|--
D|-----0-----------6-----5-----|-----7--------6-----------7--6--|--4--------3-----------3-----|-----3--------------|-----6-------|--
A|--------8--0--4-----7--------|-----------------7--5--8--------|--------------4p0h2h4--------|--------4p0h2h4-----|--------7p0--|--
E|-----------------------------|--------------------------------|-----------------------------|--------------------|-------------|--

Stave 2:

E|-----------------------------|--------------------------------|-----------------------------|--
B|-----------------------------|--------------------------------|-----------------------------|--
G|--------------------9--------|--------------------------------|-----2--2-----------------2--|--
D|-----------4--7--8-----8-----|--8--7--------6-----------------|--4--------3-----------3-----|--
A|--5--4--5-----------------9--|--------7--8-----7-----------7--|--------------4p0h2h4--------|--
E|-----------------------------|--------------------8--5--8-----|-----------------------------|--

Stave 3:

E|--
B|--
G|--
D|--
A|--
E|--

http://www.guitartabcreator.com
Guitar Tab Creator is intended to store guitar tab created through the tool. It currently does not support in-line text editing. Any text you place in here will be lost. If you need to comment on your tab, please use the "Tab Notes" section located below.