Sound will begin in 5 seconds

Leap the Precipice

01234567891011121314151617181920212223
E
B
G
D
A
E
B
0 1 2 3 4 5 6 7 8 9 10 11 12 13 14 15 16 17 18 19 20 21 22 23
Song Science #1: How Pros Use 6 Chords to Write Hit Songs
(/) Slide Up  (\) Slide Down  (h) Hammer On  (p) Pull Off  (b) Bend (r) Release (v) Vibrato

Stave 1:

E|--------------------------------------------------|--------0-----0--2-----0--|--2--7--|--
B|--1--1--1--1--1--1--1--1--3--3--3--3--3--3--3--3--|--1--3-----3--------4-----|--------|--
G|--------------------------------------------------|--------------------------|--------|--
D|--------------------------------------------------|--------------------------|--------|--
A|--------------------------------------------------|--------------------------|--------|--
E|--------------------------------------------------|--------------------------|--------|--

Stave 2:

E|-----------3--1--------------|--------------|--------------0--3--|--
B|-----------------4--3--1--3--|--1-----------|-----------1--------|--
G|--0--2--3--------------------|-----3--2--0--|--0--2--3-----------|--
D|-----------------------------|--------------|--------------------|--
A|-----------------------------|--------------|--------------------|--
E|-----------------------------|--------------|--------------------|--

Stave 3:

E|--4--3--1--------------------0--|--3--4--4--3--4--6--8--|--9--9--8-------------|--
B|-----------4--2--1--------1-----|-----------------------|-----------11--9--11--|--
G|--------------------1--3--------|-----------------------|----------------------|--
D|--------------------------------|-----------------------|----------------------|--
A|--------------------------------|-----------------------|----------------------|--
E|--------------------------------|-----------------------|----------------------|--

Stave 4:

E|------8--9--8-----11--10------|--9--8-----------------|--9--8-----------------|--11--10--9--8--|--
B|--11-----------9----------11--|--------11--9--11--11--|--------11--9--11--11--|----------------|--
G|------------------------------|-----------------------|-----------------------|----------------|--
D|------------------------------|-----------------------|-----------------------|----------------|--
A|------------------------------|-----------------------|-----------------------|----------------|--
E|------------------------------|-----------------------|-----------------------|----------------|--

Stave 5:

E|-----------3--1--------------|--------------|--------------0--3--|--
B|-----------------4--3--1--3--|--1-----------|-----------1--------|--
G|--0--2--3--------------------|-----3--2--0--|--0--2--3-----------|--
D|-----------------------------|--------------|--------------------|--
A|-----------------------------|--------------|--------------------|--
E|-----------------------------|--------------|--------------------|--

Stave 6:

E|----4--3--1--------------------0--|--3--4--4--3--4--6--8--|--9--9--8-------------|--
B|-------------4--2--1--------1-----|-----------------------|-----------11--9--11--|--
G|----------------------1--3--------|-----------------------|----------------------|--
D|----------------------------------|-----------------------|----------------------|--
A|----------------------------------|-----------------------|----------------------|--
E|----------------------------------|-----------------------|----------------------|--

Stave 7:

E|--------8--9--8-----11--10------|--9--8-----------------|--9--8-----------------|--11--10--|--
B|----11-----------9----------11--|--------11--9--11--11--|--------11--9--11--11--|----------|--
G|--------------------------------|-----------------------|-----------------------|----------|--
D|--------------------------------|-----------------------|-----------------------|----------|--
A|--------------------------------|-----------------------|-----------------------|----------|--
E|--------------------------------|-----------------------|-----------------------|----------|--

Stave 8:

E|--------------------------------------------0--0--|--------------------------------------------0--0--|--
B|-----------------------0--0--0--1--1--3--3--------|-----------------------0--0--0--1--1--3--3--------|--
G|--2--2--2--2--2--2--2-----------------------------|--2--2--2--2--2--2--2-----------------------------|--
D|--------------------------------------------------|--------------------------------------------------|--
A|--------------------------------------------------|--------------------------------------------------|--
E|--------------------------------------------------|--------------------------------------------------|--

Stave 9:

E|--1--1--1--1--1--1--1--1--1--1--1--1--1--1--1--1--|--5--5--5--4--|--
B|--------------------------------------------------|--------------|--
G|--------------------------------------------------|--------------|--
D|--------------------------------------------------|--------------|--
A|--------------------------------------------------|--------------|--
E|--------------------------------------------------|--------------|--

Stave 10:

E|--0-----0--1--3--1--0-----0--|--0-----0--1--3--1--0-----0--|--1--0--1--3--5--3--1--0--1--|--5--4--7--6--
B|-----3-----------------3-----|-----3-----------------3-----|-----------------------------|--------------
G|-----------------------------|-----------------------------|-----------------------------|--------------
D|-----------------------------|-----------------------------|-----------------------------|--------------
A|-----------------------------|-----------------------------|-----------------------------|--------------
E|-----------------------------|-----------------------------|-----------------------------|--------------

Stave 11:

E|--------------|--3--5--6--8--|--1--0-----------0--1--3--5--0--|--5--12------|--
B|-----------1--|--------------|--------3--1--3-----------------|---------13--|--
G|--0--2--3-----|--------------|--------------------------------|-------------|--
D|--------------|--------------|--------------------------------|-------------|--
A|--------------|--------------|--------------------------------|-------------|--
E|--------------|--------------|--------------------------------|-------------|--

Stave 12:

E|--10--8--7------------------|--------0-----0--2--|--3--2--0-----0--0--|--3--2--0-----0--0--|--
B|------------10--8--6--5--3--|--1--3-----3--------|-----------3--------|-----------3--------|--
G|----------------------------|--------------------|--------------------|--------------------|--
D|----------------------------|--------------------|--------------------|--------------------|--
A|----------------------------|--------------------|--------------------|--------------------|--
E|----------------------------|--------------------|--------------------|--------------------|--

Stave 13:

E|--3--2--0-----0--7--7--5--5--5--3--|--3--2--0-----0--0--|--3--2--0-----0--0--0--5--12--|--
B|-----------3-----------------------|-----------3--------|-----------3------------------|--
G|-----------------------------------|--------------------|------------------------------|--
D|-----------------------------------|--------------------|------------------------------|--
A|-----------------------------------|--------------------|------------------------------|--
E|-----------------------------------|--------------------|------------------------------|--

Stave 14:

E|--12--10-----------------------------10--12----------10--12--10--|--12--13--12--10--12--|--
B|----------13--12--10--9--10--12--13----------12--13--------------|----------------------|--
G|-----------------------------------------------------------------|----------------------|--
D|-----------------------------------------------------------------|----------------------|--
A|-----------------------------------------------------------------|----------------------|--
E|-----------------------------------------------------------------|----------------------|--

Stave 15:

E|--17--15--12--10--5--|--6-----6-----8------8------|--10------10------5-----5-----|--
B|---------------------|-----8-----8-----10-----10--|------11------11-----7-----7--|--
G|---------------------|----------------------------|------------------------------|--
D|---------------------|----------------------------|------------------------------|--
A|---------------------|----------------------------|------------------------------|--
E|---------------------|----------------------------|------------------------------|--

Stave 16:

E|--6-----6-----3-----3-----|--
B|-----8-----8-----4-----4--|--
G|--------------------------|--
D|--------------------------|--
A|--------------------------|--
E|--------------------------|--

http://www.guitartabcreator.com
Guitar Tab Creator is intended to store guitar tab created through the tool. It currently does not support in-line text editing. Any text you place in here will be lost. If you need to comment on your tab, please use the "Tab Notes" section located below.