Sound will begin in 5 seconds

Megaladon Bass

01234567891011121314151617181920212223
E
B
G
D
A
E
B
0 1 2 3 4 5 6 7 8 9 10 11 12 13 14 15 16 17 18 19 20 21 22 23
Song Science #1: How Pros Use 6 Chords to Write Hit Songs
(/) Slide Up  (\) Slide Down  (h) Hammer On  (p) Pull Off  (b) Bend (r) Release (v) Vibrato

Stave 1:

F|--------------0-----------------------0----------0--------------------0---------------------0--------0-----
C|--------6--------6------------10---------10---------10---------8---------8------------4--------4--------4--
G|-----6-----6--------6-----10------10---------10------------10-----10--------10-----6-----6--------6--------
D|--4--------------------8--------------------------------9-----------------------5--------------------------

Stave 2:

F|----------0h3--4--3--4------------9--11--8--9----------0h3--4--3--4------------9--11--9--8--
C|-----0h4----------------8--9--11------------------0h4----------------8--9--11---------------
G|--------------------------------------------------------------------------------------------
D|--2--------------------------------------------2--------------------------------------------

Stave 3:

F|---------------------------0-----0-----0-----0-----0-----0-----0--------
C|------------------------4-----2-----------------------------------------
G|--4p2--2--2-------------------------3-----2-----------------------------
D|-------------5p3--3--3--------------------------3-----2-----1-----0--0--

Stave 4:

F|-----
C|-----
G|-----
D|--0--

http://www.guitartabcreator.com
Guitar Tab Creator is intended to store guitar tab created through the tool. It currently does not support in-line text editing. Any text you place in here will be lost. If you need to comment on your tab, please use the "Tab Notes" section located below.