Sound will begin in 5 seconds

Unstoppable God

01234567891011121314151617181920212223
E
B
G
D
A
E
B
0 1 2 3 4 5 6 7 8 9 10 11 12 13 14 15 16 17 18 19 20 21 22 23
Song Science #1: How Pros Use 6 Chords to Write Hit Songs
(/) Slide Up  (\) Slide Down  (h) Hammer On  (p) Pull Off  (b) Bend (r) Release (v) Vibrato

Stave 1:

G|----------------------|-----------------|-
D|----------------------|-----------------|-
A|-9-9-9-11-11-11-11-11-|-7-7-7-7-7-7-7-7-|-
E|----------------------|-----------------|-

Stave 2:

G|----------|---------|----------|---------|-----------|--------|-----------|-
D|----------|---------|----------|---------|-----------|--------|-----------|-
A|-9----11--|-7-------|-9----11--|-7-------|-9----11---|-7------|-9----11---|-
E|----------|---------|----------|---------|-----------|--------|-----------|-

Stave 3:

G|---------|-----------------------|-----------------|----------------------|-
D|---------|-----------------------|-----------------|----------------------|-
A|-7-------|-/9-9-9-11-11-11-11-11-|-7-7-7-7-7-7-7-7-|-9-9-9-11-11-11-11-11-|-
E|---------|-----------------------|-----------------|----------------------|-

Stave 4:

G|-----------------|----------------------|-----------------|----------------------|-
D|-----------------|----------------------|-----------------|----------------------|-
A|-7-7-7-7-7-7-7-7-|-9-9-9-11-11-11-11-11-|-7-7-7-7-7-7-7-7-|-9-9-9-11-11-11-11-11-|-
E|-----------------|----------------------|-----------------|----------------------|-

Stave 5:

G|-----------------|----------|-
D|-----------------|----------|-
A|-7-7-7-7-7-7-7-7-|-7--------|-
E|-----------------|----------|-

Stave 6:

G|--------------|---------------|------------|-------------|-----------------|-
D|--------------|---------------|------------|-------------|-----------------|-
A|-2--2--2--2-2-|-2-4-4---4---4-|------------|-------------|-2---2---2---2-2-|-
E|--------------|---------------|-4-4-4--4-4-|-4-4-4-0---0-|-----------------|-

Stave 7:

G|---------------|--------------|----------------|----------|-
D|---------------|--------------|----------------|----------|-
A|-2-4-4---4---4-|--------------|----------------|----------|-
E|---------------|-4-4-4---4--4-|-4-4-4---0-0-0--|----------|-

Stave 8:

G|---------|------------|----------|-----------|----------|------------|-
D|---------|------------|----------|-----------|----------|------------|-
A|---------|------------|----------|-----------|----------|------------|-
E|---------|-2----4-----|-0--------|-2---4-----|-0--------|-2----4-----|-

Stave 9:

G|-----------|-----------------|-----------------|-----------------|-
D|-----------|-----------------|-----------------|-----------------|-
A|-----------|-----------------|-----------------|-----------------|-
E|--0--------|-2-2-2-4-4-4-4-4-|-0-0-0-0-0-0-0-0-|-2-2-2-4-4-4-4-4-|-

Stave 10:

G|-----------------|-----------------|-----------------|-----------------|-
D|-----------------|-----------------|-----------------|-----------------|-
A|-----------------|-----------------|-----------------|-----------------|-
E|-0-0-0-0-0-0-0-0-|-2-2-2-4-4-4-4-4-|-0-0-0-0-0-0-0-0-|-2-2-2-4-4-4-4-4-|-

Stave 11:

G|-----------------|----------|-
D|-----------------|----------|-
A|-----------------|----------|-
E|-0-0-0-0-0-0-0-0-|-0--------|-

Stave 12:

G|------------|---------------|-----------|-------------|-----------|-
D|------------|---------------|-----------|-------------|-----------|-
A|-2-2-2----2-|-2--4-4---4--4-|-----------|-------------|-2-2-2---2-|-
E|------------|---------------|-4-4-4---4-|-4---4-4---0-|-----------|-

Stave 13:

G|---------------|-----------|---------------|------------|-----------------|-
D|---------------|-----------|---------------|------------|-----------11-13-|-
A|-2--4-4--4---4-|-----------|---------------|-2-2-2----2-|-2-4-4--/9-------|-
E|---------------|-4-4-4---4-|-4---4-4----0--|------------|-----------------|-

Stave 14:

G|------------------|--------------|------------|----------------|--------------|-
D|-11-9-------------|--------------|------------|----------------|--------------|-
A|------11-11----11-|-11-11--------|-2-2-2----2-|-2--4-4---4---4-|--------------|-
E|------------------|---------0----|------------|----------------|-4-4-----4----|-

Stave 15:

G|--------------|----------|-
D|--------------|----------|-
A|--------------|-2--------|-
E|-4-4------4---|----------|-

Stave 16:

G|---------|---------|----------|----------|---------|-----------|-
D|---------|---------|----------|----------|---------|-----------|-
A|---------|-2-------|-------6--|-7--------|------9--|-11--------|-
E|---------|---------|----------|----------|---------|-----------|-

Stave 17:

G|---------|----------|---------|----------|----------|----------|-
D|------9--|----------|---------|----------|----------|----------|-
A|---------|-7--------|---------|-2--------|-------6--|-7--------|-
E|---------|----------|---------|----------|----------|----------|-

Stave 18:

G|--------|-----------|---------|----------|-
D|--------|-----------|---------|----------|-
A|------9-|-11--------|---------|-7--------|-
E|--------|-----------|-------7-|----------|-

Stave 19:

G|------------|------------|------------|------------|------------|------------|-
D|------------|------------|------------|------------|------------|------------|-
A|-2--2--2--2-|-2--2/-6--6-|------------|------------|------------|-------2--2-|-
E|------------|------------|-0--0--0--0-|-0--0--2--2-|-4--4--4--4-|-4--4-------|-

Stave 20:

G|------------|------------|------------|------------|------------|------------|-
D|------------|------------|------------|------------|------------|------------|-
A|------------|------------|-2--2--2--2-|-2--2/-6--6-|------------|------------|-
E|-0--0--0--0-|-0--0--0--0-|------------|------------|-0--0--0--0-|-0--0--2--2-|-

Stave 21:

G|------------|------------|------------|------------|-----------------|-
D|------------|------------|------------|------------|-----------------|-
A|------------|-------2--2-|------------|------------|-2-2-2-2-2-2-2-2-|-
E|-4--4--4--4-|-4--4-------|-0--0--0--0-|-0--0--0--0-|-----------------|-

Stave 22:

G|-----------------|-----------------|-----------------|-----------------|-
D|-----------------|-----------------|-----------------|-----------------|-
A|-2-2-2-2/6-6-6-6-|-----------------|-----------------|-----------------|-
E|-----------------|-0-0-0-0-0-0-0-0-|-0-0-0-0/2-2-2-2-|-4-4-4-4-4-4-4-4-|-

Stave 23:

G|-----------------|-----------------|---------------|-
D|-----------------|-----------------|---------------|-
A|---------2-2-2-2-|-----------------|---------------|-
E|-4-4-4-4---------|-0-0-0-0-0-0-0-0-|-0-0-0-0-0-0-0\|-

Stave 24:

G|--
D|--
A|--
E|--

http://www.guitartabcreator.com
Guitar Tab Creator is intended to store guitar tab created through the tool. It currently does not support in-line text editing. Any text you place in here will be lost. If you need to comment on your tab, please use the "Tab Notes" section located below.