Sound will begin in 5 seconds

Start A Fire

01234567891011121314151617181920212223
E
B
G
D
A
E
B
0 1 2 3 4 5 6 7 8 9 10 11 12 13 14 15 16 17 18 19 20 21 22 23
Song Science #1: How Pros Use 6 Chords to Write Hit Songs
(/) Slide Up  (\) Slide Down  (h) Hammer On  (p) Pull Off  (b) Bend (r) Release (v) Vibrato

Stave 1:

G|-----------|-----------|------------|-----------|-----------|-----------|--
D|-----------|-----------|--3----1----|-----------|-----------|-----------|--
A|-----------|--4--------|------------|--4--------|-----------|--4--------|--
E|--4--------|-----------|------------|-----------|--4--------|-----------|--

Stave 2:

G|------------|-----------|-----------|----------|--
D|--3----1----|-----------|-----------|----------|--
A|------------|--4--------|-----------|----------|--
E|------------|-----------|--4--------|----------|--

Stave 3:

G|---------------|----------------------|---------------|----------------------|--
D|--3----1-------|----------------------|--3----1-------|----------------------|--
A|----------4----|----------3--4--6--6--|----------4----|----------3--4--6--6--|--
E|---------------|--4--4----------------|---------------|--4--4----------------|--

Stave 4:

G|-----------------|------------------|------------------|----------------------|--
D|--3------1-------|------------------|--3--3------------|----------------------|--
A|------------4----|----------6--6----|----------4--4----|--------3--4----6--6--|--
E|-----------------|--4--4------------|------------------|--4--4----------------|--

Stave 5:

G|--6--6--------|--------------|--6--6--------|--------------|--6--6--------|--------------|--
D|--------6--6--|--------------|--------6--6--|--------------|--------6--6--|--------------|--
A|--------------|--6--6--8--8--|--------------|--6--6--8--8--|--------------|--6--6--8--8--|--
E|--------------|--------------|--------------|--------------|--------------|--------------|--

Stave 6:

G|--6--6--------|--8--8--------|-----------|--
D|--------6--6--|--------------|--6--------|--
A|--------------|--------6--6--|-----------|--
E|--------------|--------------|-----------|--

Stave 7:

G|----------|-----------|-----------|------------|-----------|--
D|----------|-----------|-----------|------------|-----------|--
A|----------|-----------|--4--------|--8----6----|--4--------|--
E|----------|--4--------|-----------|------------|-----------|--

Stave 8:

G|----------------------------|--------------------------|--------------------------|--
D|----------------------------|--------------------------|--------------------------|--
A|----------------------------|--4--4--4--4--4--4--4--6--|--8--8--8--8--6--6--6--6--|--
E|----4--4--4--4--4--4--4--4--|--------------------------|--------------------------|--

Stave 9:

G|--------------------------|-----------|--
D|--------------------------|-----------|--
A|--4--4--4--4--4--4--4--4--|-----------|--
E|--------------------------|--4--------|--

http://www.guitartabcreator.com
Guitar Tab Creator is intended to store guitar tab created through the tool. It currently does not support in-line text editing. Any text you place in here will be lost. If you need to comment on your tab, please use the "Tab Notes" section located below.