Sound will begin in 5 seconds

Pompeii By Bastille

01234567891011121314151617181920212223
E
B
G
D
A
E
B
0 1 2 3 4 5 6 7 8 9 10 11 12 13 14 15 16 17 18 19 20 21 22 23
Song Science #1: How Pros Use 6 Chords to Write Hit Songs
(/) Slide Up  (\) Slide Down  (h) Hammer On  (p) Pull Off  (b) Bend (r) Release (v) Vibrato

Stave 1:

G|------------------|--------------|--------------|--------------|--------------|--
D|------------------|--------------|--------------|--16--16------|--14--14------|--
A|------------------|--17--17------|--12--12------|--------------|--------------|--
E|------------------|--------------|--------------|--------------|--------------|--

Stave 2:

G|----------------|--------------|--------------|--------------|-------------------|--
D|----------------|--------------|--16--16------|--14--14------|-------------------|--
A|----17--17------|--12--12------|--------------|--------------|--5--5----0--5--7--|--
E|----------------|--------------|--------------|--------------|-------------------|--

Stave 3:

G|-------------------|----------------|----------------|-------------------|-------------------|--
D|-------------------|----------------|----------------|-------------------|-------------------|--
A|-------------------|----------------|----------------|--5--5----0--5--7--|-------------------|--
E|--5--5----0--5--0--|--2--2----2--2--|--0--0----0--0--|-------------------|--5--5----0--5--0--|--

Stave 4:

G|------------------|-----------|----------|-------------------------|----------------------|--
D|------------------|-----------|----------|-------------------------|----------------------|--
A|------------------|-----------|----------|--5--5--5--5--5--5--5/7--|----------------------|--
E|--2--2----2----2--|--0--------|----------|-------------------------|--5--5--5--5--5--5--5\|--

Stave 5:

G|--------------------------|-------------------------|-------------------------|----------------------|--
D|--------------------------|-------------------------|-------------------------|----------------------|--
A|--------------------------|-----------------------2/|--5--5--5--5--5--5--5/7--|----------------------|--
E|--2--2--2--2--2--2--2--2--|--0--0--0--0--0--0--0----|-------------------------|--5--5--5--5--5--5--5\|--

Stave 6:

G|--------------------------|--------------------------|------------------|----------------------|--
D|--------------------------|--------------------------|------------------|-------------7b11--9--|--
A|--------------------------|--------------------------|--5--5------------|--7--7----7-----------|--
E|--2--2--2--2--2--2--2--2--|--0--0--0--0--0--0--0--0--|------------5--5--|----------------------|--

Stave 7:

G|------------------|----------------------|--
D|------------------|-------------7b11--9--|--
A|--5--5------------|--7--7----7-----------|--
E|------------5--5--|----------------------|--

Stave 8:

G|------19------19------19------19--|------14------14------14------13--|-----11-----11-----11-----11--|--
D|----------------------------------|----------------------------------|------------------------------|--
A|--17------17------17------17------|--12------12------12------11------|--9------9------9------9------|--
E|----------------------------------|----------------------------------|------------------------------|--

Stave 9:

G|-----9-----9-----9-----9--|------19------19------19------19--|------14------14------14------13--|--
D|--------------------------|----------------------------------|----------------------------------|--
A|--7-----7-----7-----7-----|--17------17------17------17------|--12------12------12------11------|--
E|--------------------------|----------------------------------|----------------------------------|--

Stave 10:

G|-------11-----11-----11-----11--|-----9-----9-----9-----9--|-------------------|-------------------|--
D|--------------------------------|--------------------------|-------------------|-------------------|--
A|----9------9------9------9------|--7-----7-----7-----7-----|--5--5----0--7--5--|-------------------|--
E|--------------------------------|--------------------------|-------------------|--5--5----0--5--0--|--

Stave 11:

G|------------------|------------|--------------|--------------|--------------|-----------|--
D|------------------|------------|--------------|--------------|--------------|-----------|--
A|------------------|------------|--5--5--5--5--|--------------|--------------|-----------|--
E|--2--2----2----2--|--0--0------|--------------|--5--5--5--5--|--2--2--2--2--|--0--------|--

Stave 12:

G|----------|-------------------------|----------------------|--------------------------|--
D|----------|-------------------------|----------------------|--------------------------|--
A|----------|--5--5--5--5--5--5--5/7--|----------------------|--------------------------|--
E|----------|-------------------------|--5--5--5--5--5--5--5\|--2--2--2--2--2--2--2--2--|--

Stave 13:

G|-------------------------|-------------------------|----------------------|--------------------------|--
D|-------------------------|-------------------------|----------------------|--------------------------|--
A|-----------------------2/|--5--5--5--5--5--5--5/7--|----------------------|--------------------------|--
E|--0--0--0--0--0--0--0----|-------------------------|--5--5--5--5--5--5--5\|--2--2--2--2--2--2--2--2--|--

Stave 14:

G|--------------------------|----------------|----------------------|----------------|-------------------
D|--------------------------|----------------|-------------7b11--9--|----------------|----------7b11--9--
A|--------------------------|--5--5----------|--7--7----7-----------|--5--5----------|--7--7-------------
E|--0--0--0--0--0--0--0--0--|----------5--5--|----------------------|----------5--5--|-------------------

Stave 15:

G|--r----|--------------|--------------|--------------|-----------|--------|--
D|-------|--------------|--------------|--------------|-----------|--------|--
A|-------|--5--5--5--5--|--------------|--------------|-----------|--------|--
E|-------|--------------|--5--5--5--5--|--2--2--2--2--|--0--------|--------|--

Stave 16:

G|-------------------------|----------------------|--------------------------|-------------------------|--
D|-------------------------|----------------------|--------------------------|-------------------------|--
A|--5--5--5--5--5--5--5/7--|----------------------|--------------------------|-----------------------2/|--
E|-------------------------|--5--5--5--5--5--5--5\|--2--2--2--2--2--2--2--2--|--0--0--0--0--0--0--0----|--

Stave 17:

G|-------------------------|----------------------|--------------------------|--------------------------|--
D|-------------------------|----------------------|--------------------------|--------------------------|--
A|--5--5--5--5--5--5--5/7--|----------------------|--------------------------|--------------------------|--
E|-------------------------|--5--5--5--5--5--5--5\|--2--2--2--2--2--2--2--2--|--0--0--0--0--0--0--0--0--|--

Stave 18:

G|----------------|----------------------|----------------|----------------------|--
D|----------------|-------------7b11--9--|----------------|-------------7b11--9--|--
A|--5--5----------|--7--7----7-----------|--5--5----------|--7--7----7-----------|--
E|----------5--5--|----------------------|----------5--5--|----------------------|--

http://www.guitartabcreator.com
Guitar Tab Creator is intended to store guitar tab created through the tool. It currently does not support in-line text editing. Any text you place in here will be lost. If you need to comment on your tab, please use the "Tab Notes" section located below.