Sound will begin in 5 seconds

Only King Forever 2

01234567891011121314151617181920212223
E
B
G
D
A
E
B
0 1 2 3 4 5 6 7 8 9 10 11 12 13 14 15 16 17 18 19 20 21 22 23
Song Science #1: How Pros Use 6 Chords to Write Hit Songs
(/) Slide Up  (\) Slide Down  (h) Hammer On  (p) Pull Off  (b) Bend (r) Release (v) Vibrato

Stave 1:

G|-----------------|-----------------|-----------------|-----------------|-----------------|-
D|-----------------|-----------------|-----------------|-----------------|-----------------|-
A|-3-3-3-3-3-3-3-3-|-3-3-3-3-3-3-3-3-|-3-3-3-3-3-3-3-3-|-3-3-3-3-3-3-3-3-|-----------------|-
E|-----------------|-----------------|-----------------|-----------------|-5-5-5-5-5-5-5-5-|-

Stave 2:

G|-----------------|-----------------|-----------------|-----------------|-----------------|-
D|-----------------|-----------------|-----------------|-----------------|-----------------|-
A|-----------------|-3-3-3-3-3-3-3-3-|-3-3-3-3-3-3-3-3-|-3-3-3-3-3-3-3-3-|-3-3-3-3-3-3-3-3-|-
E|-1-1-1-1-1-1-1-1-|-----------------|-----------------|-----------------|-----------------|-

Stave 3:

G|-----------------|-----------------|-----------------|-----------------|-----------------|-
D|-----------------|-----------------|-----------------|-----------------|-----------------|-
A|-3-3-3-3-3-3-3-3-|-3-3-3-3-3-3-3-3-|-----------------|-----------------|-3-3-3-3-3-3-3-3-|-
E|-----------------|-----------------|-5-5-5-5-5-5-5-5-|-1-1-1-1-1-1-1-1-|-----------------|-

Stave 4:

G|-----------------|-
D|-----------------|-
A|-3-3-3-3-3-3-3-3-|-
E|-----------------|-

Stave 5:

G|----------|--------|-------|---------|----------|----------|-
D|----------|--------|-------|---------|----------|----------|-
A|-3--------|--------|-------|---------|----------|----------|-
E|----------|--------|-------|---------|-5--------|-1--------|-

Stave 6:

G|---------|---------|----------|--------|---------|---------|-
D|---------|---------|----------|--------|---------|---------|-
A|---------|---------|----------|--------|---------|---------|-
E|-8-------|---------|-8--------|--------|---------|---------|-

Stave 7:

G|----------|----------|----------|--------|----------|----------|-
D|----------|----------|----------|--------|----------|----------|-
A|----------|----------|-3--------|--------|----------|----------|-
E|-5--------|-1--------|----------|--------|-5--------|-1--------|-

Stave 8:

G|-----------|-------------|------------|-------------|-----------|-
D|-----------|-------------|------------|-------------|-----------|-
A|-3----3----|--3-3--------|------------|-------------|-----------|-
E|-----------|---------0---|-1-----1----|--1-1--------|-3---3-----|-

Stave 9:

G|-----------|-------------|----------------|------------|-
D|-----------|-------------|----------------|------------|-
A|-----------|-------------|----------------|-3-----3----|-
E|--3-3------|-1-----1-----|--1-1-1-1-1-1-1-|------------|-

Stave 10:

G|--------------|-----------|-----------|----------|----------|-
D|--------------|-----------|-----------|----------|----------|-
A|--3-3---------|-----------|-----------|----------|----------|-
E|----------0---|-1----1----|-1-1-------|-3---3----|--3-3-----|-

Stave 11:

G|------------|-----------|-
D|------------|-----------|-
A|------------|-----------|-
E|-1-----1----|-1-1-------|-

Stave 12:

G|-----------------|-----------------|-----------------|-----------------|-
D|-----------------|-----------------|-----------------|-----------------|-
A|-3-3-3-3-3-3-3-3-|-3-3-3-3-3-3-3-3-|-3-3-3-3-3-3-3-3-|-3-3-3-3-3-3-3-3-|-
E|-----------------|-----------------|-----------------|-----------------|-

Stave 13:

G|-----------------|-----------------|-----------------|-----------------|-
D|-----------------|-----------------|-----------------|-----------------|-
A|-----------------|-----------------|-3-3-3-3-3-3-3-3-|-3-3-3-3-3-3-3-3-|-
E|-5-5-5-5-5-5-5-5-|-1-1-1-1-1-1-1-1-|-----------------|-----------------|-

Stave 14:

G|-----------------|-----------------|-----------------|-----------------|-
D|-----------------|-----------------|-----------------|-----------------|-
A|-3-3-3-3-3-3-3-3-|-3-3-3-3-3-3-3-3-|-3-3-3-3-3-3-3-3-|-3-3-3-3-3-3-3-3-|-
E|-----------------|-----------------|-----------------|-----------------|-

Stave 15:

G|-----------------|-----------------|-----------------|-----------------|-
D|-----------------|-----------------|-----------------|-----------------|-
A|-----------------|-----------------|-3-3-3-3-3-3-3-3-|-3-3-3-3-3-3-3-3-|-
E|-5-5-5-5-5-5-5-5-|-1-1-1-1-1-1-1-1-|-----------------|-----------------|-

Stave 16:

G|-----------|-------------|-----------------|---------------|-
D|-----------|-------------|-----------------|---------------|-
A|-----------|-------------|-3-3-3-3-3-3-3-3-|---------------|-
E|----5------|-1-----1---1-|-----------------|-3-3-3-3-3-3-3/|-

Stave 17:

G|----------|-------------|----------|------------|------------|-----------|-
D|----------|-------------|----------|------------|------------|-----------|-
A|-3----3---|--3-3--------|----------|------------|------------|-----------|-
E|----------|---------0---|-1----1---|--1-1-------|-3----3-----|--3-3------|-

Stave 18:

G|------------|----------------|------------|-------------|------------|-
D|------------|----------------|------------|-------------|------------|-
A|------------|--8-8-8-8-8-8-8-|-3-----3----|--3-3--------|------------|-
E|-1-----1----|----------------|------------|---------0---|-1-----1----|-

Stave 19:

G|-----------|------------|-----------|-------------|-------------|-
D|-----------|------------|-----------|-------------|-------------|-
A|-----------|------------|-----------|-------------|-------------|-
E|--1-1------|-3-----3----|--3-3------|-1-----1-----|--1-1--1--1--|-

Stave 20:

G|-----------|-----------|--------|--------|---------|---------|--------|---------|-
D|-----------|-----------|--------|--------|---------|---------|--------|---------|-
A|-----------|-----------|--------|--------|---------|---------|--------|---------|-
E|-5--------\|-3--------\|--------|--------|---------|---------|--------|---------|-

Stave 21:

G|------------|---------------|-----------|---------------|-------------|-
D|------------|---------------|-----------|---------------|-0-2-0---0-0-|-
A|--5-5-----0-|-3---2---0---3-|-----------|---------0-3-0-|-------0-----|-
E|------------|---------------|-3-3-------|-3-3---3-------|-------------|-

Stave 22:

G|-----------|-----------|----------------|-----------|-------------|-
D|-----------|-----------|----------------|-----------|-------------|-
A|-3-------3-|-----------|-----------0-3--|-5-5-----0-|-3--2--0--3--|-
E|-----------|-3-3-------|-3-3-----3------|-----------|-------------|-

Stave 23:

G|-----------|-----------------|-----------------|-----------------|-
D|-----------|-----------------|-----------------|-----------------|-
A|-----------|-----------0-3-0-|-5-5-5-5-5-5-5-5-|-3-3-3-3-3-3-3-3-|-
E|-3-3-------|-3-3-----3-------|-----------------|-----------------|-

Stave 24:

G|-------------------------|-------------------------|-
D|-------------------------|-------------------------|-
A|-10-10-10-10-10-10-10-10-|-10-10-10-10-10-10-10-10-|-
E|-------------------------|-------------------------|-

Stave 25:

G|------------|------------|------------|----------------|------------|-
D|------------|------------|------------|----------------|------------|-
A|-5-5------5-|-3-3------3-|------------|------------0-3-|-5-5------5-|-
E|------------|------------|-3-3------3-|-3-3------3-----|------------|-

Stave 26:

G|------------|------------|-----------------|--------------|------------|-
D|------------|------------|-----------------|--------------|------------|-
A|-3-3------3-|------------|-----------0-3-0-|-5/7-5----5-5-|-3-3------3-|-
E|------------|-3-3------3-|-3-3-----3-------|--------------|------------|-

Stave 27:

G|------------|-------------|-------------|------------|-------------|-
D|------------|-------------|-------------|------------|-------------|-
A|------------|-------------|-------------|-3-3------3-|-------------|-
E|-3-3------3-|-3-3------3--|-1-1------1--|------------|-3----3----3-|-

Stave 28:

G|-------------|---------|--------|--------|---------|-----------------|-
D|-------------|---------|--------|--------|---------|-----------------|-
A|-------------|---------|--------|--------|---------|-7-7-7-7-7-7-7-7-|-
E|-3-3-3-3---3-|-5-------|--------|--------|---------|-----------------|-

Stave 29:

G|-----------------|-
D|-----------------|-
A|-8-8-8-8---------|-
E|---------1-1-1-1-|-

http://www.guitartabcreator.com
Guitar Tab Creator is intended to store guitar tab created through the tool. It currently does not support in-line text editing. Any text you place in here will be lost. If you need to comment on your tab, please use the "Tab Notes" section located below.