Sound will begin in 5 seconds

My Lighthouse

01234567891011121314151617181920212223
E
B
G
D
A
E
B
0 1 2 3 4 5 6 7 8 9 10 11 12 13 14 15 16 17 18 19 20 21 22 23
Song Science #1: How Pros Use 6 Chords to Write Hit Songs
(/) Slide Up  (\) Slide Down  (h) Hammer On  (p) Pull Off  (b) Bend (r) Release (v) Vibrato

Stave 1:

G|-5---|----5--|----5--|-----|-5---|----5--|-
D|-----|-3-----|-3-----|-5---|-----|-3-----|-
A|-----|-------|-------|-----|-----|-------|-
E|-----|-------|-------|-----|-----|-------|-

Stave 2:

G|-------|----5--|-------|-0--5-5-|-5-5-5-5-7-9-|-
D|-3--2--|-0-----|-3--2--|--------|-------------|-
A|-------|-------|-------|--------|-------------|-
E|-------|-------|-------|--------|-------------|-

Stave 3:

G|--------|-------|-------|-------|-------|-
D|--3-----|-7--5--|-3-----|-------|-------|-
A|-----3--|-------|----3--|-------|----3--|-
E|--------|-------|-------|-5--3--|-1-----|-

Stave 4:

G|-------|-------|------|-
D|-------|-3-----|------|-
A|-------|----3--|------|-
E|-5--3--|-------|-5----|-

Stave 5:

G|---------|---------|---------|---------|---------|-
D|-3-3-----|---------|---------|---------|-3-3-----|-
A|-----3-3-|---------|-----3-3-|---------|-----3-3-|-
E|---------|-3-3-3-3-|-1-1-----|-3-3-3-3-|---------|-

Stave 6:

G|---------|---------|-----5--|-
D|-5-5-5-5-|---------|---5----|-
A|---------|-3-3-3-3-|-3------|-
E|---------|---------|--------|-

Stave 7:

G|-5----|-------|-------|------|-------|--------|-
D|------|-3-----|-3-----|------|-----2-|-3---2--|-
A|------|----3--|----3--|------|-3-----|--------|-
E|------|-------|-------|-3----|-------|--------|-

Stave 8:

G|---------|---------|-10--9--|-0-0-----|--------------|-
D|--3----2-|-------2-|--------|---------|--------------|-
A|---------|---2-3---|--------|-----3-3-|-3-3-15-15-15-|-
E|---------|-3-------|--------|---------|--------------|-

Stave 9:

G|-------------|-
D|-------------|-
A|-15-15-15-15-|-
E|-------------|-

Stave 10:

G|---------|---------|---------|---------|---------|---------|-
D|---------|---------|---------|-7-7-5-5-|-3-3-----|---------|-
A|-----3-3-|---------|-----3-3-|---------|-----3-3-|---------|-
E|-1-1-----|-5-5-3-3-|-1-1-----|---------|---------|-5-5-3-3-|-

Stave 11:

G|---------|-------|-
D|---------|-----5\|-
A|-----3-3-|-------|-
E|-1-1-----|-5-5---|-

Stave 12:

G|---------|---------|---------|---------|---------|---------|-
D|---------|---------|---------|-----5-2-|-3-3-----|---------|-
A|-----3-3-|---------|-----3-3-|---------|-----3-3-|-------2-|-
E|-1-1-----|-3-3-3-3-|-1-1-----|-3-3-----|---------|-3-3-3---|-

Stave 13:

G|---------|---------|-
D|---------|---------|-
A|-3-3-3-3-|-3-3-3-3-|-
E|---------|---------|-

Stave 14:

G|-----|---------|---------|---------|---------|-
D|-----|---------|---------|---------|-7-7-5-5-|-
A|-----|-----3-3-|---------|-----3-3-|---------|-
E|-----|-1-1-----|-5-5-3-3-|-1-1-----|---------|-

Stave 15:

G|---------|---------|-------|---------|---------|-
D|---------|---------|-7-7-7-|-5-5-5-5-|-3-3-3-3-|-
A|---------|-3-3-3-3-|-------|---------|---------|-
E|-1-1-1-1-|---------|-------|---------|---------|-

Stave 16:

G|---------|---------|------|-
D|---------|-7-7-7-7-|-5----|-
A|-3-3-3-3-|---------|------|-
E|---------|---------|------|-

Stave 17:

G|---------|---------|---------|---------|---------|---------|-
D|---------|---------|---------|-7-7-5-5-|-3-3-----|---------|-
A|-----3-3-|---------|-----3-3-|---------|-----3-3-|---------|-
E|-1-1-----|-5-5-3-3-|-1-1-----|---------|---------|-5-5-3-3-|-

Stave 18:

G|---------|--------|---------|---------|---------|---------|-
D|---------|-----5--|---------|---------|---------|-5-5-5-2-|-
A|-----3-3-|--------|-----3-3-|---------|-----3-3-|---------|-
E|-1-1-----|-5-5----|-1-1-----|-3-3-3-0-|-1-1-----|---------|-

Stave 19:

G|---------|---------|---------|---0-----|------|-
D|---------|---------|-5-5-5-5-|-2---2---|------|-
A|---------|-3-3-3-3-|---------|---------|-3\---|-
E|-1-1-1-1-|---------|---------|-------3-|------|-

http://www.guitartabcreator.com
Guitar Tab Creator is intended to store guitar tab created through the tool. It currently does not support in-line text editing. Any text you place in here will be lost. If you need to comment on your tab, please use the "Tab Notes" section located below.