Sound will begin in 5 seconds

Feel It

01234567891011121314151617181920212223
E
B
G
D
A
E
B
0 1 2 3 4 5 6 7 8 9 10 11 12 13 14 15 16 17 18 19 20 21 22 23
Song Science #1: How Pros Use 6 Chords to Write Hit Songs
(/) Slide Up  (\) Slide Down  (h) Hammer On  (p) Pull Off  (b) Bend (r) Release (v) Vibrato

Stave 1:

G|-----------------|-----------------------|--------------|-----7--------------|-----------------|--
D|--------------5--|--7-----------------5--|--------------|--------------------|--------------5--|--
A|-----------7-----|-----------------7-----|--8--8--8--7--|--5-----5--5--5--5--|-----------7-----|--
E|--5--3--5--------|-----5--5--3--5--------|--------------|--------------------|--5--3--5--------|--

Stave 2:

G|-----------------------|--------------|-----7-----------|-----------------|-----------------------|--
D|--7-----------------5--|--------------|-----------------|--------------5--|--7-----------------5--|--
A|-----------------7-----|--8--8--8--7--|--5-----5--5--5--|-----------7-----|-----------------7-----|--
E|-----5--5--3--5--------|--------------|-----------------|--5--3--5--------|-----5--5--3--5--------|--

Stave 3:

G|--------------|--------|-----------------|-----------------------|--------------|--
D|--------------|--------|--------------5--|--7-----------------5--|--------------|--
A|--8--8--8--7--|--------|-----------7-----|-----------------7-----|--8--8--8--7--|--
E|--------------|--------|--5--3--5--------|-----5--5--3--5--------|--------------|--

Stave 4:

G|-----7--------------|-----------------|-----------------------|--------------|-----7--------------|--
D|--------------------|--------------5--|--7-----------------5--|--------------|--------------------|--
A|--5-----5--5--5--5--|-----------7-----|-----------------7-----|--8--8--8--7--|--5-----5--5--5--5--|--
E|--------------------|--5--3--5--------|-----5--5--3--5--------|--------------|--------------------|--

Stave 5:

G|-----------|--9--9----------------|--------------------------|-----------------------|--
D|-----------|--------10--10--7--7--|-----7-----7-----7-----7--|-----7-----7-----7-----|--
A|-----------|----------------------|--------------------------|-----------------------|--
E|-----------|----------------------|--5-----5-----5-----5-----|--5-----5-----5-----3--|--

Stave 6:

G|--------------------------|-----------|-----------------|-----------------------|--
D|-----3-----3-----3-----3--|-----------|--------------5--|--7-----------------5--|--
A|--------------------------|-----------|-----------7-----|-----------------7-----|--
E|--1-----1-----1-----1-----|-----------|--5--3--5--------|-----5--5--3--5--------|--

Stave 7:

G|--------------|-----7-----------------|-----------------|-----------------------|--------------|--
D|--------------|-----------------------|--------------5--|--7-----------------5--|--------------|--
A|--8--8--8--7--|--5-----5--5--5--5--5--|-----------7-----|-----------------7-----|--8--8--8--7--|--
E|--------------|-----------------------|--5--3--5--------|-----5--5--3--5--------|--------------|--

Stave 8:

G|--------------|-----------------------|--------------|-----7-----------------|--
D|-----------5--|--7-----------------5--|--------------|-----------------------|--
A|--------------|-----------------7-----|--8--8--8--7--|--5-----5--5--5--5--5--|--
E|--------------|-----5--5--3--5--------|--------------|-----------------------|--

Stave 9:

G|--------------|--------------|--------------|-----7-----------------|-----------------|--
D|--------------|-----5--7--5--|--------------|-----------------------|--------------5--|--
A|-----------5--|--7-----------|--8--8--8--7--|--5-----5--5--5--5--5--|-----------7-----|--
E|--5--7--8-----|--------------|--------------|-----------------------|--5--3--5--------|--

Stave 10:

G|-----------------------|--------------|-----------|-----------------|-----------------------|--
D|--7-----------------5--|--------------|-----------|--------------5--|--7-----------------5--|--
A|-----------------7-----|--8--8--8--7--|-----------|-----------7-----|-----------------7-----|--
E|-----5--5--3--5--------|--------------|-----------|--5--3--5--------|-----5--5--3--5--------|--

Stave 11:

G|--------------|-----7-----------------|-----------------|-----------------------
D|--------------|-----------------------|--------------5--|--7-----------------5--
A|--8--8--8--7--|--5-----5--5--5--5--5--|-----------7-----|-----------------7-----
E|--------------|-----------------------|--5--3--5--------|-----5--5--3--5--------

Stave 12:

G|--------------|-----7-----------------|--------------|--9--9----------------------|--
D|--------------|-----------------------|--------------|-----------10--10-----7--7--|--
A|--8--8--8--7--|--5-----5--5--5--5--5--|--------------|----------------------------|--
E|--------------|-----------------------|--------------|----------------------------|--

Stave 13:

G|--------------------------|--------------------------|--------------------------|--
D|-----7-----7-----7-----7--|-----7-----7-----7-----5--|-----3-----3-----3-----3--|--
A|--------------------------|--------------------------|--------------------------|--
E|--5-----5-----5-----5-----|--5-----5-----5-----3-----|--1-----1-----1-----1-----|--

Stave 14:

G|-----7-----7-----------------|-----------|--------------------|-----------|--------------------|--
D|--------------------5--------|-----------|-----5-----6--------|-----------|-----5-----6--------|--
A|--5-----5--------------------|-----------|--------------------|-----------|--------------------|--
E|-----------------3-----4--5--|-----------|--3-----4-----5-----|-----------|--3-----4-----5-----|--

Stave 15:

G|-----------|--------------------|-----------|-----------5-----7-----9--|--------------------|--
D|-----------|-----5-----6--------|-----------|-----7--------------------|-----5-----7--------|--
A|-----------|--------------------|-----------|--------3-----5-----7-----|--------------------|--
E|-----------|--3-----4-----5-----|-----------|--5-----------------------|--3-----5-----------|--

Stave 16:

G|-----------------|-----------------------|--------------|-----7-----------------|-----------------|--
D|--------------5--|--7-----------------5--|--------------|-----------------------|--------------5--|--
A|-----------7-----|-----------------7-----|--8--8--8--7--|--5-----5--5--5--5--5--|-----------7-----|--
E|--5--3--5--------|-----5--5--3--5--------|--------------|-----------------------|--5--3--5--------|--

Stave 17:

G|-----------------------|--------------|-----7-----------------|-----------------|--
D|--7-----------------5--|--------------|-----------------------|--------------5--|--
A|-----------------7-----|--8--8--8--7--|--5-----5--5--5--5--5--|-----------7-----|--
E|-----5--5--3--5--------|--------------|-----------------------|--5--3--5--------|--

Stave 18:

G|-----------------------|--------------|-----7-----------------|-----------------|--
D|--7-----------------5--|--------------|-----------------------|--------------5--|--
A|-----------------7-----|--8--8--8--7--|--5-----5--5--5--5--5--|-----------7-----|--
E|-----5--5--3--5--------|--------------|-----------------------|--5--3--5--------|--

Stave 19:

G|-----------------------|--------------|-----7-----------------|-----------------|-----------------------
D|--7-----------------5--|--------------|-----------------------|--------------5--|--7-----------------5--
A|-----------------7-----|--8--8--8--7--|--5-----5--5--5--5--5--|-----------7-----|-----------------7-----
E|-----5--5--3--5--------|--------------|-----------------------|--5--3--5--------|-----5--5--3--5--------

Stave 20:

G|--------------|-----7-----------------|-----------------|-----------------------|--------------|--
D|--------------|-----------------------|--------------5--|--7-----------------5--|--------------|--
A|--8--8--8--7--|--5-----5--5--5--5--5--|-----------7-----|-----------------7-----|--8--8--8--7--|--
E|--------------|-----------------------|--5--3--5--------|-----5--5--3--5--------|--------------|--

Stave 21:

G|-----7-----------------|-----------|-----------------|-----------------------|--------------|--
D|-----------------------|-----------|--------------5--|--7-----------------5--|--------------|--
A|--5-----5--5--5--5--5--|-----------|-----------7-----|-----------------7-----|--8--8--8--7--|--
E|-----------------------|-----------|--5--3--5--------|-----5--5--3--5--------|--------------|--

Stave 22:

G|-----7--------------|-----------------|-----------------------|--------------|-----7-----------------|--
D|--------------------|--------------5--|--7-----------------5--|--------------|-----------------------|--
A|--5-----5--5--5--5--|-----------7-----|-----------------7-----|--8--8--8--7--|--5-----5--5--5--5--5--|--
E|--------------------|--5--3--5--------|-----5--5--3--5--------|--------------|-----------------------|--

Stave 23:

G|-----------------|-----------------------|--------------|-----7-----------------|-----------------|--
D|--------------5--|--7-----------------5--|--------------|-----------------------|--------------5--|--
A|-----------7-----|-----------------7-----|--8--8--8--7--|--5-----5--5--5--5--5--|-----------7-----|--
E|--5--3--5--------|-----5--5--3--5--------|--------------|-----------------------|--5--3--5--------|--

Stave 24:

G|-----------------------|--------------|-----7-----------|--
D|--7-----------------5--|--------------|-----------------|--
A|-----------------7-----|--8--8--8--7--|--5-----5--5--5--|--
E|-----5--5--3--5--------|--------------|-----------------|--

http://www.guitartabcreator.com
Guitar Tab Creator is intended to store guitar tab created through the tool. It currently does not support in-line text editing. Any text you place in here will be lost. If you need to comment on your tab, please use the "Tab Notes" section located below.