Sound will begin in 5 seconds

El manicero

Chords
01234567891011121314151617181920212223
E
B
G
D
A
E
B
0 1 2 3 4 5 6 7 8 9 10 11 12 13 14 15 16 17 18 19 20 21 22 23
Learn to Play Guitar Online
(/) Slide Up  (\) Slide Down  (h) Hammer On  (p) Pull Off  (b) Bend (r) Release (v) Vibrato

Stave 1:

E|-----------------------0-----0-----
B|--------------0--1--3-----1-----3--
G|-----0--2--2--------------------4--
D|--3--------------------------------
A|-----------------------------------
E|-----------------------------------

Stave 2:

E|-----------------------------2--4--5--5--
B|--------------0--1--3--3--3--------------
G|-----0--2--2-----------------------------
D|--3--------------------------------------
A|-----------------------------------------
E|-----------------------------------------

Stave 3:

E|--0--2--4--4--4--2--0--5--5--
B|-----------------------------
G|-----------------------------
D|-----------------------------
A|-----------------------------
E|-----------------------------

Stave 4:

E|--5--0--5--0--5--7--0--7--0--7--9--0--9--0--9--
B|-----------------------------------------------
G|-----------------------------------------------
D|-----------------------------------------------
A|-----------------------------------------------
E|-----------------------------------------------

Stave 5:

E|--10--0--10--0--10--12--12--12--12--12--
B|----------------------------------------
G|----------------------------------------
D|----------------------------------------
A|----------------------------------------
E|----------------------------------------

Stave 6:

E|--12--0--12--0--14--
B|--------------------
G|--------------------
D|--------------------
A|--------------------
E|--------------------

Stave 7:

E|--0--2--4--4--2--0--5--5--
B|--------------------------
G|--------------------------
D|--------------------------
A|--------------------------
E|--------------------------

Stave 8:

E|--5p0--0--2p0--0--
B|------------------
G|------------------
D|------------------
A|------------------
E|------------------

http://www.guitartabcreator.com
Guitar Tab Creator is intended to store guitar tab created through the tool. It currently does not support in-line text editing. Any text you place in here will be lost. If you need to comment on your tab, please use the "Tab Notes" section located below.