Sound will begin in 5 seconds

Boku Dake ga inai Machi ED

Chords
01234567891011121314151617181920212223
E
B
G
D
A
E
B
0 1 2 3 4 5 6 7 8 9 10 11 12 13 14 15 16 17 18 19 20 21 22 23
Song Science #1: How Pros Use 6 Chords to Write Hit Songs
(/) Slide Up  (\) Slide Down  (h) Hammer On  (p) Pull Off  (b) Bend (r) Release (v) Vibrato

Capo Fret 6

Stave 1:

E|-----------------------------------------------------------------------------------------------------------------------------------------------------
B|-----0--------0--------0-----------------------3--2--------3--2--------3--5--3--2--3--2-----------3--5--3--2--3--2--------2--------------------------
G|--------2--------2--------2-----------0--2--4--------2--4--------2--4--------------------4--2--4--------------------4--2-----4--4--------0--2--4--4--
D|--2--------2--------2--------2--2--4-----------------------------------------------------------------------------------------------2--4--------------
A|-----------------------------------------------------------------------------------------------------------------------------------------------------
E|-----------------------------------------------------------------------------------------------------------------------------------------------------

Stave 2:

E|-----------------------------------------------------------------------------------------------------------------------
B|-----3--2--2-----------------3--2--2-----------------3--5--5-----3--2-----------------------2-----2--3--2-----------2--
G|-----------------2--4--4-----------------2--4--4-----------------------4--4-----2--4--2--4-----4-----------4--3--4-----
D|--2-----------2-----------2-----------2-----------0-----------2--------------------------------------------------------
A|-----------------------------------------------------------------------------2-----------------------------------------
E|-----------------------------------------------------------------------------------------------------------------------

Stave 3:

E|--------------------------------------------------------------------------------------------------------------
B|--------2--------------------------------7--------------------------7-----------------------2--5--4--2--4-----
G|--3--4-----3--3--4--4--4--4--4--4--3--4-----4--4--4--4--4--4--3--4-----4--4--3--4--4-----4-----------------4--
D|--------------------------------------------------------------------------------------4-----------------------
A|--------------------------------------------------------------------------------------------------------------
E|--------------------------------------------------------------------------------------------------------------

Stave 4:

E|-----------------------------------------------------------------------------------------------------------------------------
B|--7--7--5--5--3--2-----------2--3--3--2-----2--2--4--5--4--2--4--4--2--------------------------7--7--7--5--4--2-----2--4-----
G|--------------------4--4--4--------------4-----------------------------4--4--4--4--4--4--3--4--------------------4--------4--
D|-----------------------------------------------------------------------------------------------------------------------------
A|-----------------------------------------------------------------------------------------------------------------------------
E|-----------------------------------------------------------------------------------------------------------------------------

Stave 5:

E|-----------------------------------------------------------------------------------------
B|--------------------2--5--4--------2--3--2--------2--3--5--3--2--------3--3--2--2--0--0--
G|--4--3--4--4-----4-----------4--4-----------4--4-----------------4--4-----------------4--
D|--------------4-----------------------------------------------------------------------4--
A|--------------------------------------------------------------------------------------2--
E|--------------------------------------------------------------------------------------2--

http://www.guitartabcreator.com
Guitar Tab Creator is intended to store guitar tab created through the tool. It currently does not support in-line text editing. Any text you place in here will be lost. If you need to comment on your tab, please use the "Tab Notes" section located below.