supernova

Chords

01234567891011121314151617181920212223
E
B
G
D
A
E
B
0 1 2 3 4 5 6 7 8 9 10 11 12 13 14 15 16 17 18 19 20 21 22 23
(/) Slide Up  (\) Slide Down  (h) Hammer On  (p) Pull Off  (b) Bend (r) Release (v) Vibrato

Stave 1:

G|--------------------------------------------------------2--2--2-----------------------------------------------------------------4--6--4-----------------------
D|--4--4--2--4--2--4--4--4--2--4--2--4--4--4--2--4--2--4-----------2-----2--4--4--2--4--2--4--4--4--2--4--2--4--4--4--2--4--2--4-----------7--2--4--4--2--4--2--
A|--------------------------------------------------------------------------------------------------------------------------------------------------------------
E|--------------------------------------------------------------------------------------------------------------------------------------------------------------

Stave 2:

G|-----------------------------------------2--2--2-----------------------------------------------------------6--6--6--6--6--6--6--
D|--4--4--4--2--4--2--4--4--4--2--4--2--4-----------2--2--4--4--2--4--2--4--4--4--2--4--2--4--4--4--2--4--2-----------------------
A|--------------------------------------------------------------------------------------------------------------------------------
E|--------------------------------------------------------------------------------------------------------------------------------

Stave 3:

G|--------9--9-----------9--9-----11--11--9--9--7--11--11--7--7--9--------9--9-----------9--9-----7--7--6--6-----7--7--6--6-----
D|--7--7--------7--6--6--------6------------------------------------7--7--------7--6--6--------6--------------9--------------9--
A|------------------------------------------------------------------------------------------------------------------------------
E|------------------------------------------------------------------------------------------------------------------------------

Stave 4:

G|--------6--6--------------------7--7--6--6-----7--7--6--6-----------9--9-----------9--9-----11--11--11--11--13--13--13--13--13--13--13--
D|--7--7--------7--6--6--9--9--6--------------9--------------9--7--7--------7--6--6--------6----------------------------------------------
A|----------------------------------------------------------------------------------------------------------------------------------------
E|----------------------------------------------------------------------------------------------------------------------------------------

Stave 5:

G|--7--7-----------9--9-----------------------------------------------7--7-----------9--9-----------------------------------------------
D|--------------------------------------------------------------------------------------------------------------------------------------
A|--------5--5--5--------7--7--7--9--9--7--9--7--9--9--9--7--9--7--9--------5--5--5--------7--7--7--9--9--7--9--7--9--9--9--7--9--7--9--
E|--------------------------------------------------------------------------------------------------------------------------------------

Stave 6:

G|--7--7-----------9--9-----------11--11--9--9--11--11--11--11--7--7-----------9--9-----------------------------------------------------
D|--------------------------------------------------------------------------------------------4--4--2--4--2--4--4--4--2--4--2--4--4--4--
A|--------5--5--5--------7--7--7--------------------------------------5--5--5--------7--7--0--------------------------------------------
E|--------------------------------------------------------------------------------------------------------------------------------------

							http://www.guitartabcreator.com
Instruments
{"strings":[[[".",".",".",".",".",".",".",".",".",".",".",".",".",".",".",".",".",".",2,2,2,".",".",".",".",".",".",".",".",".",".",".",".",".",".",".",".",".",".",".",".",".",4,6,4,".",".",".",".",".",".","."],[4,4,2,4,2,4,4,4,2,4,2,4,4,4,2,4,2,4,".",".",".",2,".",2,4,4,2,4,2,4,4,4,2,4,2,4,4,4,2,4,2,4,".",".",".",7,2,4,4,2,4,2],[".",".",".",".",".",".",".",".",".",".",".",".",".",".",".",".",".",".",".",".",".",".",".",".",".",".",".",".",".",".",".",".",".",".",".",".",".",".",".",".",".",".",".",".",".",".",".",".",".",".",".","."],[".",".",".",".",".",".",".",".",".",".",".",".",".",".",".",".",".",".",".",".",".",".",".",".",".",".",".",".",".",".",".",".",".",".",".",".",".",".",".",".",".",".",".",".",".",".",".",".",".",".",".","."]],[[".",".",".",".",".",".",".",".",".",".",".",".",".",2,2,2,".",".",".",".",".",".",".",".",".",".",".",".",".",".",".",".",".",".",".",6,6,6,6,6,6,6],[4,4,4,2,4,2,4,4,4,2,4,2,4,".",".",".",2,2,4,4,2,4,2,4,4,4,2,4,2,4,4,4,2,4,2,".",".",".",".",".",".","."],[".",".",".",".",".",".",".",".",".",".",".",".",".",".",".",".",".",".",".",".",".",".",".",".",".",".",".",".",".",".",".",".",".",".",".",".",".",".",".",".",".","."],[".",".",".",".",".",".",".",".",".",".",".",".",".",".",".",".",".",".",".",".",".",".",".",".",".",".",".",".",".",".",".",".",".",".",".",".",".",".",".",".",".","."]],[[".",".",9,9,".",".",".",9,9,".",11,11,9,9,7,11,11,7,7,9,".",".",9,9,".",".",".",9,9,".",7,7,6,6,".",7,7,6,6,"."],[7,7,".",".",7,6,6,".",".",6,".",".",".",".",".",".",".",".",".",".",7,7,".",".",7,6,6,".",".",6,".",".",".",".",9,".",".",".",".",9],[".",".",".",".",".",".",".",".",".",".",".",".",".",".",".",".",".",".",".",".",".",".",".",".",".",".",".",".",".",".",".",".",".",".",".",".",".",".",".","."],[".",".",".",".",".",".",".",".",".",".",".",".",".",".",".",".",".",".",".",".",".",".",".",".",".",".",".",".",".",".",".",".",".",".",".",".",".",".",".","."]],[[".",".",6,6,".",".",".",".",".",".",7,7,6,6,".",7,7,6,6,".",".",".",9,9,".",".",".",9,9,".",11,11,11,11,13,13,13,13,13,13,13],[7,7,".",".",7,6,6,9,9,6,".",".",".",".",9,".",".",".",".",9,7,7,".",".",7,6,6,".",".",6,".",".",".",".",".",".",".",".",".",".","."],[".",".",".",".",".",".",".",".",".",".",".",".",".",".",".",".",".",".",".",".",".",".",".",".",".",".",".",".",".",".",".",".",".",".",".",".",".",".",".",".","."],[".",".",".",".",".",".",".",".",".",".",".",".",".",".",".",".",".",".",".",".",".",".",".",".",".",".",".",".",".",".",".",".",".",".",".",".",".",".",".",".","."]],[[7,7,".",".",".",9,9,".",".",".",".",".",".",".",".",".",".",".",".",".",".",".",7,7,".",".",".",9,9,".",".",".",".",".",".",".",".",".",".",".",".",".",".","."],[".",".",".",".",".",".",".",".",".",".",".",".",".",".",".",".",".",".",".",".",".",".",".",".",".",".",".",".",".",".",".",".",".",".",".",".",".",".",".",".",".",".",".","."],[".",".",5,5,5,".",".",7,7,7,9,9,7,9,7,9,9,9,7,9,7,9,".",".",5,5,5,".",".",7,7,7,9,9,7,9,7,9,9,9,7,9,7,9],[".",".",".",".",".",".",".",".",".",".",".",".",".",".",".",".",".",".",".",".",".",".",".",".",".",".",".",".",".",".",".",".",".",".",".",".",".",".",".",".",".",".",".","."]],[[7,7,".",".",".",9,9,".",".",".",11,11,9,9,11,11,11,11,7,7,".",".",".",9,9,".",".",".",".",".",".",".",".",".",".",".",".",".",".",".",".","."],[".",".",".",".",".",".",".",".",".",".",".",".",".",".",".",".",".",".",".",".",".",".",".",".",".",".",".",".",4,4,2,4,2,4,4,4,2,4,2,4,4,4],[".",".",5,5,5,".",".",7,7,7,".",".",".",".",".",".",".",".",".",".",5,5,5,".",".",7,7,0,".",".",".",".",".",".",".",".",".",".",".",".",".","."],[".",".",".",".",".",".",".",".",".",".",".",".",".",".",".",".",".",".",".",".",".",".",".",".",".",".",".",".",".",".",".",".",".",".",".",".",".",".",".",".",".","."]]],"numberofstrings":4,"notes":["G","D","A","E"],"capo":0,"stringnotes":["G2","D2","A1","E1"],"comments":["Stave 1:","Stave 2:","Stave 3:","Stave 4:","Stave 5:","Stave 6:"],"timing":[[null,null,null,null,null,null,null,null,null,null,null,null,null,null,null,null,null,null,null,null,null,null,null,null,null,null,null,null,null,null,null,null,null,null,null,null,null,null,null,null,null,null,null,null,null,null,null,null,null,null,null],[null,null,null,null,null,null,null,null,null,null,null,null,null,null,null,null,null,null,null,null,null,null,null,null,null,null,null,null,null,null,null,null,null,null,null,null,null,null,null,null,null,null],[null,null,null,null,null,null,null,null,null,null,null,null,null,null,null,null,null,null,null,null,null,null,null,null,null,null,null,null,null,null,null,null,null,null,null,null,null,null,null,null],[null,null,null,null,null,null,null,null,null,null,null,null,null,null,null,null,null,null,null,null,null,null,null,null,null,null,null,null,null,null,null,null,null,null,null,null,null,null,null,null,null],[null,null,null,null,null,null,null,null,null,null,null,null,null,null,null,null,null,null,null,null,null,null,null,null,null,null,null,null,null,null,null,null,null,null,null,null,null,null,null,null,null,null,null,null],[null,null,null,null,null,null,null,null,null,null,null,null,null,null,null,null,null,null,null,null,null,null,null,null,null,null,null,null,null,null,null,null,null,null,null,null,null,null,null,null,null,null,null]],"timingvisible":false,"tabcounter":42,"stave":5,"totalstaves":6,"instrument":"4bass","selectedtuning":"4bass","version":"13"}

Member for

1 month 1 week
Submitted by n8nate on Tue, 2020-10-27 22:18