Sound will begin in 5 seconds

The Tea is Cold

Chords
01234567891011121314151617181920212223
E
B
G
D
A
E
B
0 1 2 3 4 5 6 7 8 9 10 11 12 13 14 15 16 17 18 19 20 21 22 23
Song Science #1: How Pros Use 6 Chords to Write Hit Songs
(/) Slide Up  (\) Slide Down  (h) Hammer On  (p) Pull Off  (b) Bend (r) Release (v) Vibrato

Stave 1:

E|--12p10---------12--14p12--------------14------12--10--
B|---------12/14-------------14--14--12------10------10--
G|-------------------------------------------------------
D|-------------------------------------------------------
A|-------------------------------------------------------
E|-------------------------------------------------------

Stave 2:

E|--12--10------10------10------10------10------14------14------12------12------10------10--
B|----------10------10------12------12------10------10------10------10------10------10------
G|------------------------------------------------------------------------------------------
D|------------------------------------------------------------------------------------------
A|------------------------------------------------------------------------------------------
E|------------------------------------------------------------------------------------------

Stave 3:

E|--12/14--12--10p12--10h12p10------10------8---------8--------10--12--
B|------------------------------12------10--------10--------8------10--
G|---------------------------------------------9---------9---------11--
D|---------------------------------------------------------------------
A|---------------------------------------------------------------------
E|---------------------------------------------------------------------

Stave 4:

E|----------10p8----------8---8---8---8---
B|------11--------11------11--11--11--11--
G|--12----------------12--12--12--12--12--
D|----------------------------------------
A|----------------------------------------
E|----------------------------------------

http://www.guitartabcreator.com
Guitar Tab Creator is intended to store guitar tab created through the tool. It currently does not support in-line text editing. Any text you place in here will be lost. If you need to comment on your tab, please use the "Tab Notes" section located below.