Sound will begin in 5 seconds

Slava

Chords
01234567891011121314151617181920212223
E
B
G
D
A
E
B
0 1 2 3 4 5 6 7 8 9 10 11 12 13 14 15 16 17 18 19 20 21 22 23
Song Science #1: How Pros Use 6 Chords to Write Hit Songs
(/) Slide Up  (\) Slide Down  (h) Hammer On  (p) Pull Off  (b) Bend (r) Release (v) Vibrato

Capo Fret 3

Stave 1:

E|------------------------------------------------------------------------------------------
B|------------------------------------------------------------------------------------------
G|-----1--------4--------------1--------1--2p1-----1--------4--------------1--------1--2p1--
D|--------2--------2--------2--------2----------------2--------2--------2--------2----------
A|--0--------0--------0--4--------4-------------0--------0--------0--4--------4-------------
E|------------------------------------------------------------------------------------------

Stave 2:

E|------------------------------------------------------------------------------------------------
B|------------------------------------------------------------------------------------------------
G|--------1--------1--------------1--------1--4p1--------1--------1--------------1--------1--4p1--
D|-----4--------4-----2--------2--------2-------------4--------4-----2--------2--------2----------
A|--0--------0--------------4--------4-------------0--------0--------------4--------4-------------
E|------------------------------------------------------------------------------------------------

Stave 3:

E|--------------------------------------------------------------------------------------
B|--------------------------------------------------------------------------------------
G|--1--1--1--1h4-----4--4--4-----1--1--1--1h4-----4--4--4-----1--1--1--1-------1--1--1--
D|--2--2--2--2-------2--2--2-----2--2--2--2-------2--2--2-----4--4--4--4-------2--2--2--
A|--0--0--0--0-------0--0--0-----0--0--0--0-------0--0--0-----0--0--0--0h4-----4--4--4--
E|--0--0--0--0-------0--0--0-----0--0--0--0-------0--0--0-----0--0--0--0-------0--0--0--

Stave 4:

E|--------------------------------------------------------------------------------------
B|--------------------------------------------------------------------------------------
G|--1--1--1--1-------1--1--1-----2--2--2--2p1-----1--4--4-----2--2--2--2h1-----1--4--4--
D|--4--4--4--4-------2--2--2-----2--2--2--2-------2--2--2-----2--2--2--2-------2--2--2--
A|--0--0--0--0h4-----4--4--4-----0--0--0--0-------0--0--0-----0--0--0--0-------0--0--0--
E|--0--0--0--0-------0--0--0-----0--0--0--0-------0--0--0-----0--0--0--0-------0--0--0--

Stave 5:

E|---------------------------------------------------------
B|-----x---------------------------------------------------
G|--1--1--1--1-------1--1--1-----1--1--1--1-------1--1--1--
D|--2--2--2--2h4-----4--4--4-----2--2--2--2h4-----4--4--4--
A|--4--4--4--4-------0--0--0-----4--4--4--4-------0--0--0--
E|--0--0--0--0-------0--0--0-----0--0--0--0-------0--0--0--

http://www.guitartabcreator.com
Guitar Tab Creator is intended to store guitar tab created through the tool. It currently does not support in-line text editing. Any text you place in here will be lost. If you need to comment on your tab, please use the "Tab Notes" section located below.