Sound will begin in 5 seconds

Over and Done (Solo)

01234567891011121314151617181920212223
E
B
G
D
A
E
B
0 1 2 3 4 5 6 7 8 9 10 11 12 13 14 15 16 17 18 19 20 21 22 23
Song Science #1: How Pros Use 6 Chords to Write Hit Songs
(/) Slide Up  (\) Slide Down  (h) Hammer On  (p) Pull Off  (b) Bend (r) Release (v) Vibrato

(W|WW) Whole (H|HH) Half (Q|QQ) Quarter (E|EE) 8th (S|SS) 16th (T|TT) 32nd (X|XX) 64th

Stave 1:
t: Q E E E EE Q E E E E H Q E E E EE Q E E EE E Q QQ QQ EE E EE EE QQ
E|--------------|-----------|--------------|---------------|------------------
B|--------------|-----------|--------------|---------------|------------------
G|--------------|-----------|--------------|---------------|------------------
D|--------------|-----------|--------------|---------------|----10-9-12-10-10-
A|--------------|-7-8-7-----|--------------|-7-8-10-8-7-10-|-12---------------
E|-5-5-7-8-10-8-|-------8-5-|-5-5-7-8-10-8-|---------------|------------------

Stave 2:
t: QQ EE E EE EE QQ QQ EE E SS SS S SS E EE QQ EE EE EE EE QQ QQ EE EE EE EE QQ
E|------------------|-------------------------|----------10-------|----------10-------|-
B|------------------|-------------------------|-10-10-13----13-13-|-10-10-13----13-13-|-
G|------------------|-------9-12-10-9----9-12-|-------------------|-------------------|-
D|----10-9-12-10-10-|----10-----------12------|-------------------|-------------------|-
A|-12---------------|-12----------------------|-------------------|-------------------|-
E|------------------|-------------------------|-------------------|-------------------|-

Stave 3:
t: QQ EE EE EE EE QQ EE EE EEEE EEEE EE EE QQ EE EE EEEE EEEE QQ QQ
E|-10-10-------------|----------------------------|-------------------------|-
B|-------13-11-10-10-|----------------------------|-------------------10-13-|-
G|-------------------|-12-10-12b14-14b12-10-------|-12-10-12b14-14b12-------|-
D|-------------------|----------------------12-12-|-------------------------|-
A|-------------------|----------------------------|-------------------------|-
E|-------------------|----------------------------|-------------------------|-

Stave 4:
t: QQ EE EE EE EE QQ QQ EE EE HH
E|-10-10-13-15-13-13-|-10-10-------|-
B|-------------------|-------13-10-|-
G|-------------------|-------------|-
D|-------------------|-------------|-
A|-------------------|-------------|-
E|-------------------|-------------|-

http://www.guitartabcreator.com
Guitar Tab Creator is intended to store guitar tab created through the tool. It currently does not support in-line text editing. Any text you place in here will be lost. If you need to comment on your tab, please use the "Tab Notes" section located below.