My Testimony in D

Chords

01234567891011121314151617181920212223
E
B
G
D
A
E
B
0 1 2 3 4 5 6 7 8 9 10 11 12 13 14 15 16 17 18 19 20 21 22 23
(/) Slide Up  (\) Slide Down  (h) Hammer On  (p) Pull Off  (b) Bend (r) Release (v) Vibrato

INTRO: swell with overdrive, reverb and delay

E|-----
B|-----
G|--7--
D|--7--
A|--5--
E|-----

VERSE 2: Palm mute with delay and reverb

E|-----------------------
B|-----------------------
G|--7--7--7--7--7--7--7--
D|-----------------------
A|-----------------------
E|-----------------------

CHORUS: with overdrive, delay and reverb

E|--17---------15------14---------15------14---------15------14--
B|--15-----------------------------------------------------------
G|------14/16------14------14/16------14------14/16------14------
D|---------------------------------------------------------------
A|---------------------------------------------------------------
E|---------------------------------------------------------------

INTERLUDE: with overdrive, delay and reverb

E|----------------------------
B|----------------------------
G|--9--11--2--4--7--9--2--11--
D|----------------------------
A|--7--9---0--2--5--7--0--9---
E|----------------------------

VERSE: with delay and reverb, and temolo

E|----------------------------------------
B|---------------7-----------7------------
G|--3h5h7-----7-----9-----7-----9---------
D|---------------------9-----------7------
A|------------------------------------10--
E|----------------------------------------

BRIDGE: with delay and reverb

E|--14--15--
B|--15--15--
G|--14--14--
D|----------
A|----------
E|----------

BRIDGE: palm mute with delay and reverb

E|--14--14--14--14--14--14--14--14-----15--15--15--15--15--15--15--15--
B|--15--15--15--15--15--15--15--15-----15--15--15--15--15--15--15--15--
G|--14--14--14--14--14--14--14--14-----14--14--14--14--14--14--14--14--
D|---------------------------------------------------------------------
A|---------------------------------------------------------------------
E|---------------------------------------------------------------------

CHORUS: with overdrive, delay and reverb

E|--------------------------
B|--------------------------
G|--7--7--7--7--7--7--7--7--
D|--------------------------
A|--------------------------
E|--------------------------



E|--17---------15------14---------15------14---------15------14--
B|--15-----------------------------------------------------------
G|------14/16------14------14/16------14------14/16------14------
D|---------------------------------------------------------------
A|---------------------------------------------------------------
E|---------------------------------------------------------------

INTERLUDE: with overdrive, delay and reverb

E|----------------------------
B|----------------------------
G|--9--11--2--4--7--9--2--11--
D|----------------------------
A|--7--9---0--2--5--7--0--9---
E|----------------------------

							http://www.guitartabcreator.com
Instruments
{"strings":[[["."],["."],[7],[7],[5],["."]],[[".",".",".",".",".",".","."],[".",".",".",".",".",".","."],[7,7,7,7,7,7,7],[".",".",".",".",".",".","."],[".",".",".",".",".",".","."],[".",".",".",".",".",".","."]],[[17,".",".",".",15,".",14,".",".",".",15,".",14,".",".",".",15,".",14],[15,".",".",".",".",".",".",".",".",".",".",".",".",".",".",".",".",".","."],[".",14,"/",16,".",14,".",14,"/",16,".",14,".",14,"/",16,".",14,"."],[".",".",".",".",".",".",".",".",".",".",".",".",".",".",".",".",".",".","."],[".",".",".",".",".",".",".",".",".",".",".",".",".",".",".",".",".",".","."],[".",".",".",".",".",".",".",".",".",".",".",".",".",".",".",".",".",".","."]],[[".",".",".",".",".",".",".","."],[".",".",".",".",".",".",".","."],[9,11,2,4,7,9,2,11],[".",".",".",".",".",".",".","."],[7,9,0,2,5,7,0,9],[".",".",".",".",".",".",".","."]],[[".",".",".",".",".","_",".",".",".",".",".",".",".",".","."],[".",".",".",".",".","_",".",7,".",".",".",7,".",".","."],[3,"h",5,"h",7,"_",7,".",9,".",7,".",9,".","."],[".",".",".",".",".","_",".",".",".",9,".",".",".",7,"."],[".",".",".",".",".","_",".",".",".",".",".",".",".",".",10],[".",".",".",".",".","_",".",".",".",".",".",".",".",".","."]],[[14,15],[15,15],[14,14],[".","."],[".","."],[".","."]],[[14,14,14,14,14,14,14,14,"_",15,15,15,15,15,15,15,15],[15,15,15,15,15,15,15,15,"_",15,15,15,15,15,15,15,15],[14,14,14,14,14,14,14,14,"_",14,14,14,14,14,14,14,14],[".",".",".",".",".",".",".",".","_",".",".",".",".",".",".",".","."],[".",".",".",".",".",".",".",".","_",".",".",".",".",".",".",".","."],[".",".",".",".",".",".",".",".","_",".",".",".",".",".",".",".","."]],[[".",".",".",".",".",".",".","."],[".",".",".",".",".",".",".","."],[7,7,7,7,7,7,7,7],[".",".",".",".",".",".",".","."],[".",".",".",".",".",".",".","."],[".",".",".",".",".",".",".","."]],[[17,".",".",".",15,".",14,".",".",".",15,".",14,".",".",".",15,".",14],[15,".",".",".",".",".",".",".",".",".",".",".",".",".",".",".",".",".","."],[".",14,"/",16,".",14,".",14,"/",16,".",14,".",14,"/",16,".",14,"."],[".",".",".",".",".",".",".",".",".",".",".",".",".",".",".",".",".",".","."],[".",".",".",".",".",".",".",".",".",".",".",".",".",".",".",".",".",".","."],[".",".",".",".",".",".",".",".",".",".",".",".",".",".",".",".",".",".","."]],[[".",".",".",".",".",".",".","."],[".",".",".",".",".",".",".","."],[9,11,2,4,7,9,2,11],[".",".",".",".",".",".",".","."],[7,9,0,2,5,7,0,9],[".",".",".",".",".",".",".","."]]],"numberofstrings":6,"notes":["E","B","G","D","A","E","B"],"capo":0,"stringnotes":["E4","B3","G3","D3","A2","E2"],"comments":["INTRO: swell with overdrive, reverb and delay","VERSE 2: Palm mute with delay and reverb","Stave 3:","Stave 4:","Stave 5:","Stave 6:","Stave 7:","Stave 8:","Stave 9:","Stave 10:"],"timing":[["W"],["W","W","W","W","W","W","W"],["W","W","W","W","W","W","W","W",null,"W","W","W","W","W",null,"W","W","W","W"],["W","W","W","W","W","W","W","W"],["W",null,"W",null,"W",null,"W","W","W","W","W","W","W","W","W"],["W","W"],["W","W","W","W","W","W","W","W","W","W","W","W","W","W","W","W","W"],["W","W","W","W","W","W","W","W"],["W","W",null,"W","W","W","W","W",null,"W","W","W","W","W",null,"W","W","W","W"],["W","W","W","W","W","W","W","W"]],"timingvisible":false,"tabcounter":7,"stave":9,"totalstaves":10,"instrument":"6guitar","selectedtuning":"6_standard","version":"13"}

Member for

1 week 4 days
Submitted by myorke00192 on Mon, 2020-09-14 05:25