Graves into Gardens in C

Chords

01234567891011121314151617181920212223
E
B
G
D
A
E
B
0 1 2 3 4 5 6 7 8 9 10 11 12 13 14 15 16 17 18 19 20 21 22 23
(/) Slide Up  (\) Slide Down  (h) Hammer On  (p) Pull Off  (b) Bend (r) Release (v) Vibrato

CHORUS: WITH OVERDRIVE, DELAY AND REVERB

E|-----------------------------------
B|-----------------------------------
G|---------7b9---------7b9-------5---
D|---2/5---------2/5---------5-------
A|-------------------------------3---
E|-----------------------------------

BRIDGE: WITH OVERDRIVE, DELAY AND REVERB

E|-------------------------------------------------------------
B|-------------------------------------------------------------
G|------10---10---10---5---10---10---10---5-----------10---5---
D|------10---10---10---5---10---10---10---5---7---7---10---5---
A|------8----8----8----3---8----8----8----3-------7---8----3---
E|------------------------------------------------5------------



E|----------------------------------------------------------
B|----------------------------------------------------------
G|---10---10---10---5---10---10---10---------------10---5---
D|---10---10---10---5---10---10---10---7---5---7---10---5---
A|---8----8----8----3---8----8----8------------7---8----3---
E|---------------------------------------------5------------



E|------------------------------------------------------------------
B|------------------------------------------------------------------
G|---10---10---10---5---10---10---10---5-------------------10---5---
D|---10---10---10---5---10---10---10---5---7---5---7---7---10---5---
A|---8----8----8----3---8----8----8----3---------------7---8----3---
E|-----------------------------------------------------5------------



E|----------------
B|----------------
G|-------10---5---
D|---7---10---5---
A|---7---8----3---
E|---5------------

CHORUS: WITH OVERDRIVE, DELAY AND REVERB

E|-------
B|-------
G|---5---
D|---5---
A|---3---
E|-------

CHORUS: WITH OVERDRIVE, DELAY AND REVERB

E|-------------------------------------
B|-------------------------------------
G|---------7b9---------7b9---------5---
D|---2/5---------2/5---------2/5-------
A|-------------------------------------
E|-------------------------------------

BRIDGE: WITH OVERDRIVE, DELAY AND REVERB

E|-------------------------------------------------------------------------------------------------
B|-------------------------------------------------------------------------------------------------
G|---5--------5---10---10---10---5--------5---10---10---10---5--------5-------------------10---5---
D|---5--------5---10---10---10---5--------5---10---10---10---5--------5---7---5---7---7---10---5---
A|---3---15---3---8----8----8----3---15---3---8----8----8----3---15---3---------------7---8----3---
E|------------------------------------------------------------------------------------5------------



E|----------------------------------------------------------------------
B|----------------------------------------------------------------------
G|---5---10---10---10---5---10---10---10---5-------------------10---5---
D|---5---10---10---10---5---10---10---10---5---7---5---7---7---10---5---
A|---3---8----8----8----3---8----8----8----3---------------7---8----3---
E|---------------------------------------------------------5------------



E|-----------------------------------------------
B|-----------------------------------------------
G|-------10---5-------10---5---10---5---10---5---
D|---7---10---5---7---10---5---10---5---10---5---
A|---7---8----3---7---8----3---8----3---8----3---
E|---5------------5------------------------------

							http://www.guitartabcreator.com
Tab Notes
The first four parts of the Bridge needs to be played first for the interlude.
Instruments
{"strings":[[[".",".",".",".",".",".",".",".",".",".",".",".",".","."],[".",".",".",".",".",".",".",".",".",".",".",".",".","."],[".",".",".",7,"b",9,".",".",".",7,"b",9,".",5],[2,"/",5,".",".",".",2,"/",5,".",".",".",5,"."],[".",".",".",".",".",".",".",".",".",".",".",".",".",3],[".",".",".",".",".",".",".",".",".",".",".",".",".","."]],[["_",".",".",".",".",".",".",".",".",".",".",".","."],["_",".",".",".",".",".",".",".",".",".",".",".","."],["_",10,10,10,5,10,10,10,5,".",".",10,5],["_",10,10,10,5,10,10,10,5,7,7,10,5],["_",8,8,8,3,8,8,8,3,".",7,8,3],["_",".",".",".",".",".",".",".",".",".",5,".","."]],[[".",".",".",".",".",".",".",".",".",".",".","."],[".",".",".",".",".",".",".",".",".",".",".","."],[10,10,10,5,10,10,10,".",".",".",10,5],[10,10,10,5,10,10,10,7,5,7,10,5],[8,8,8,3,8,8,8,".",".",7,8,3],[".",".",".",".",".",".",".",".",".",5,".","."]],[[".",".",".",".",".",".",".",".",".",".",".",".",".","."],[".",".",".",".",".",".",".",".",".",".",".",".",".","."],[10,10,10,5,10,10,10,5,".",".",".",".",10,5],[10,10,10,5,10,10,10,5,7,5,7,7,10,5],[8,8,8,3,8,8,8,3,".",".",".",7,8,3],[".",".",".",".",".",".",".",".",".",".",".",5,".","."]],[[".",".","."],[".",".","."],[".",10,5],[7,10,5],[7,8,3],[5,".","."]],[["."],["."],[5],[5],[3],["."]],[[".",".",".",".",".",".",".",".",".",".",".",".",".",".",".","."],[".",".",".",".",".",".",".",".",".",".",".",".",".",".",".","."],[".",".",".",7,"b",9,".",".",".",7,"b",9,".",".",".",5],[2,"/",5,".",".",".",2,"/",5,".",".",".",2,"/",5,"."],[".",".",".",".",".",".",".",".",".",".",".",".",".",".",".","."],[".",".",".",".",".",".",".",".",".",".",".",".",".",".",".","."]],[[".",".",".",".",".",".",".",".",".",".",".",".",".",".",".",".",".",".",".",".","."],[".",".",".",".",".",".",".",".",".",".",".",".",".",".",".",".",".",".",".",".","."],[5,".",5,10,10,10,5,".",5,10,10,10,5,".",5,".",".",".",".",10,5],[5,".",5,10,10,10,5,".",5,10,10,10,5,".",5,7,5,7,7,10,5],[3,15,3,8,8,8,3,15,3,8,8,8,3,15,3,".",".",".",7,8,3],[".",".",".",".",".",".",".",".",".",".",".",".",".",".",".",".",".",".",5,".","."]],[[".",".",".",".",".",".",".",".",".",".",".",".",".",".","."],[".",".",".",".",".",".",".",".",".",".",".",".",".",".","."],[5,10,10,10,5,10,10,10,5,".",".",".",".",10,5],[5,10,10,10,5,10,10,10,5,7,5,7,7,10,5],[3,8,8,8,3,8,8,8,3,".",".",".",7,8,3],[".",".",".",".",".",".",".",".",".",".",".",".",5,".","."]],[[".",".",".",".",".",".",".",".",".","."],[".",".",".",".",".",".",".",".",".","."],[".",10,5,".",10,5,10,5,10,5],[7,10,5,7,10,5,10,5,10,5],[7,8,3,7,8,3,8,3,8,3],[5,".",".",5,".",".",".",".",".","."]]],"numberofstrings":6,"notes":["E","B","G","D","A","E","B"],"capo":0,"stringnotes":["E4","B3","G3","D3","A2","E2"],"comments":["Stave 1:","Stave 2:","Stave 3:","Stave 4:","Stave 5:","Stave 6:","Stave 7:","Stave 8:","Stave 9:","Stave 10:"],"timing":[["W",null,"W","W",null,"W","W",null,"W","W",null,"W","W","W","W","W"],["W","W","W","W","W","W","W","W","W","W","W","W","W","W"],["W","W","W","W","W","W","W","W","W","W","W","W"],["W","W","W","W","W","W","W","W","W","W","W","W","W","W"],["W","W","W"],["W"],["W","W","W","W",null,"W","W",null,"W","W",null,"W","W",null,"W","W"],["W","W","W","W","W","W","W","W","W","W","W","W","W","W","W","W","W","W","W","W","W"],["W","W","W","W","W","W","W","W","W","W","W","W","W","W","W"],["W","W","W","W","W","W","W","W","W","W"]],"timingvisible":false,"tabcounter":9,"stave":9,"totalstaves":10,"instrument":"6guitar","selectedtuning":"6_standard","version":"13"}

Member for

1 week 1 day
Submitted by myorke00192 on Mon, 2020-09-14 05:03