Sound will begin in 5 seconds

Upon a Stage His Fate was Sung

01234567891011121314151617181920212223
E
B
G
D
A
E
B
0 1 2 3 4 5 6 7 8 9 10 11 12 13 14 15 16 17 18 19 20 21 22 23
Song Science #1: How Pros Use 6 Chords to Write Hit Songs
(/) Slide Up  (\) Slide Down  (h) Hammer On  (p) Pull Off  (b) Bend (r) Release (v) Vibrato

Stave 1:

D|-------------------------------------------------------------------------------------------------
A|-------------------------------------------------------------------------------------------------
F|-------------------------------------------------------------------------------------------------
G|-------------------------------------------------------------------------------------------------
G|-------------------------------------------------------------------------------------------------
C|-0-0-0-0-0-0-0-0-0-0-0-0-0-0-0-0-10-10-10-10-10-10-10-10-10-10-10-10-10-10-10-10-8-8-8-8-8-8-8-8-

Stave 2:

D|--------------------------
A|--------------------------
F|--------------------------
G|--------------------------
G|--------------------------
C|-0-0-7----7----0-0-5----5-

Stave 3:

D|-------------------------------
A|-------------------------------
F|-------------------------------
G|-------------------------------
G|-------------------------------
C|-0-0-3----0-5----0----3----0-5-

Stave 4:

D|------------------------------------------------------------------
A|------------------------------------------------------------------
F|------------------------------------------------------------------
G|------------------------------------------------------------------
G|------------------------------------------------------------------
C|-0----0----------0-0-0-0-------0-0-0-0----0----0----------0-0-0-0-

Stave 5:

D|---------------------------------------------------------------------------------
A|---------------------------------------------------------------------------------
F|---------------------------------------------------------------------------------
G|---------------------------------------------------------------------------------
G|---------------------------------------------------------------------------------
C|-10-10-10-10-10-10-10-10-10-10-10-10-10-10-10-10-0-0-0-0-0-0-0-0-0-0-0-0-0-0-0-0-

Stave 6:

D|---------------------------------------------------------------------------------
A|---------------------------------------------------------------------------------
F|---------------------------------------------------------------------------------
G|---------------------------------------------------------------------------------
G|---------------------------------------------------------------------------------
C|-10-10-10-10-10-10-10-10-10-10-10-10-10-10-10-10-8-8-8-8-8-8-8-8-8-8-8-8-8-8-8-8-

Stave 7:

D|---------------------------------------------------------------------------------
A|---------------------------------------------------------------------------------
F|---------------------------------------------------------------------------------
G|---------------------------------------------------------------------------------
G|---------------------------------------------------------------------------------
C|-6-6-6-6-6-6-6-6-6-6-6-6-6-6-6-6-10-10-10-10-10-10-10-10-10-10-10-10-10-10-10-10-

Stave 8:

D|---------------------------------
A|---------------------------------
F|---------------------------------
G|---------------------------------
G|---------------------------------
C|-8-8-8-8-8-8-8-8-8-8-8-8-8-8-8-8-

Stave 9:

D|--------------------------------------------------------------
A|--------------------------------------------------------------
F|--------------------------------------------------------------
G|--------------------------------------------------------------
G|--------------------------------------------------------------
C|-0-0-3----0-5----0-0-3----0-5----0-0-3----0-5----0-0-3----0-5-

Stave 10:

D|---------------------------------
A|---------------------------------
F|---------------------------------
G|---------------------------------
G|---------------------------------
C|-0-0-3----0-5----0-0-3----0-5----

Stave 11:

D|----------------------------------
A|----------------------------------
F|----------------------------------
G|----------------------------------
G|----------------------------------
C|-0-6-7----0-6-7----0-6-7----0-6-7-

http://www.guitartabcreator.com
Guitar Tab Creator is intended to store guitar tab created through the tool. It currently does not support in-line text editing. Any text you place in here will be lost. If you need to comment on your tab, please use the "Tab Notes" section located below.