Sound will begin in 5 seconds

A New Beginning - End Solo

Chords
01234567891011121314151617181920212223
E
B
G
D
A
E
B
0 1 2 3 4 5 6 7 8 9 10 11 12 13 14 15 16 17 18 19 20 21 22 23
Song Science #1: How Pros Use 6 Chords to Write Hit Songs
(/) Slide Up  (\) Slide Down  (h) Hammer On  (p) Pull Off  (b) Bend (r) Release (v) Vibrato

Stave 1:

E|---6-------------8-----------5-----4-----
B|-------8-----------9-----------7-----6---
G|-7---7---------8-----8-----------7-----5-
D|-----------------------------------------
A|-----------------------------------------
E|-----------------------------------------

Stave 2:

E|---6-----------9-------------11-----------------5-------
B|-------8-------10-10------------13--------------------3-
G|-7---7---------9-----9-------------12---------5-----2---
D|--------------------------------------------4-----4-----
A|--------------------------------------------------------
E|--------------------------------------------------------

Stave 3:

E|---------------------------------------------------14----------------------
B|------------------------------13-------------15----------9-8---------------
G|-5b7r5-3----------3-3---------------13----14----14-----------10------------
D|---------5----3-5-----5----13----13-----------------------------10---------
A|-------------------------------------------------------------------10-11-8-
E|---------------------------------------------------------------------------

Stave 4:

E|----------------------------------13b15----------------------------
B|----------------11-13-13b15r13-11-------15r13-11-------------11----
G|-------10-12-13----------------------------------12----10-12----12-
D|----10-------------------------------------------------------------
A|-------------------------------------------------------------------
E|-13----------------------------------------------------------------

Stave 5:

E|-------------------------------20-15----------------------------------
B|----14----17----21b22r21b22----------16-15----------------------------
G|-14----14----18----------------------------17-------------------------
D|----------------------------------------------17----------------------
A|-------------------------------------------------17----15-18-17-18-15-
E|----------------------------------------------------15----------------

Stave 6:

E|-------------17------------------------------------------------
B|-----------------------7v--------------------------------------
G|----17----17---------5----------3-0-5-0-3-0-0-5-0-7-0-0-7-0-10-
D|-------16----------7-------------------------------------------
A|-18------------------------------------------------------------
E|---------------------------------------------------------------

Stave 7:

E|---------------------------------------------------------------------
B|-----------------------------------------------16v----15-------16-15-
G|-0-10-0-12-0-10-0-0-12-0-15-0-0-15-0-15-0-17-0-----------17-15-------
D|---------------------------------------------------------------------
A|---------------------------------------------------------------------
E|---------------------------------------------------------------------

Stave 8:

E|---------------------------------------------------------------
B|-----------------------------------------15-16----------15-16v-
G|-17-15--------------------------------17-------------17--------
D|-------18-17-15--------------------------------18--------------
A|----------------18-17-15-15-17-18------------------------------
E|----------------------------------15v--------------------------

Stave 9:

E|-------------------------------------------------------------------
B|----------15----------------15-17h19p17-15----15----------------15-
G|-------------------------------------------------------------------
D|-16-17-19----19-17-16-17-19----------------19----19-17-16-17-19----
A|-------------------------------------------------------------------
E|-------------------------------------------------------------------

Stave 10:

E|----------------------16-13-------------------------------13-16-13-18b20r18p15-------
B|----------17b19r17-15-------13-------------------------13----------------------18b20-
G|-------------------------------13-------------------13-------------------------------
D|-19-17-16-------------------------15-------------15----------------------------------
A|-------------------------------------15-------15-------------------------------------
E|----------------------------------------13-16----------------------------------------

Stave 11:

E|-15-------------------------------------
B|----15-18----15----------15-------17-15-
G|----------17----15-17----15-------17-15-
D|----------------------17----------------
A|----------------------------------------
E|----------------------------------------

http://www.guitartabcreator.com
Guitar Tab Creator is intended to store guitar tab created through the tool. It currently does not support in-line text editing. Any text you place in here will be lost. If you need to comment on your tab, please use the "Tab Notes" section located below.