Top Gun Theme

01234567891011121314151617181920212223
E
B
G
D
A
E
B
0 1 2 3 4 5 6 7 8 9 10 11 12 13 14 15 16 17 18 19 20 21 22 23
(/) Slide Up  (\) Slide Down  (h) Hammer On  (p) Pull Off  (b) Bend (r) Release (v) Vibrato

Stave 1:

E|-----------------|--------------------|--------------------|-----------|--
B|-----8--8--6--5--|--6--5--------------|--5-----5--6--5-----|--5--------|--
G|--5--------------|--------7--7--5--7--|-----7-----------5--|-----7-----|--
D|-----------------|--------------------|--------------------|-----------|--
A|-----------------|--------------------|--------------------|-----------|--
E|-----------------|--------------------|--------------------|-----------|--

Stave 2:

E|-----------------|--------------------|--------------------|-----------|--
B|-----8--8--6--5--|--6--5--------------|--5-----5--6--5-----|--8--------|--
G|--5--------------|--------7--7--5--7--|-----7-----------5--|-----------|--
D|-----------------|--------------------|--------------------|-----------|--
A|-----------------|--------------------|--------------------|-----------|--
E|-----------------|--------------------|--------------------|-----------|--

							http://www.guitartabcreator.com
Chords

Instruments
{"title":"","strings":[[[".",".",".",".",".","|",".",".",".",".",".",".","|",".",".",".",".",".",".","|",".",".","_","|"],[".",8,8,6,5,"|",6,5,".",".",".",".","|",5,".",5,6,5,".","|",5,".","_","|"],[5,".",".",".",".","|",".",".",7,7,5,7,"|",".",7,".",".",".",5,"|",".",7,"_","|"],[".",".",".",".",".","|",".",".",".",".",".",".","|",".",".",".",".",".",".","|",".",".","_","|"],[".",".",".",".",".","|",".",".",".",".",".",".","|",".",".",".",".",".",".","|",".",".","_","|"],[".",".",".",".",".","|",".",".",".",".",".",".","|",".",".",".",".",".",".","|",".",".","_","|"]],[[".",".",".",".",".","|",".",".",".",".",".",".","|",".",".",".",".",".",".","|",".","_","_","|"],[".",8,8,6,5,"|",6,5,".",".",".",".","|",5,".",5,6,5,".","|",8,"_","_","|"],[5,".",".",".",".","|",".",".",7,7,5,7,"|",".",7,".",".",".",5,"|",".","_","_","|"],[".",".",".",".",".","|",".",".",".",".",".",".","|",".",".",".",".",".",".","|",".","_","_","|"],[".",".",".",".",".","|",".",".",".",".",".",".","|",".",".",".",".",".",".","|",".","_","_","|"],[".",".",".",".",".","|",".",".",".",".",".",".","|",".",".",".",".",".",".","|",".","_","_","|"]]],"numberofstrings":6,"notes":["E","B","G","D","A","E","B"],"capo":0,"stringnotes":["E4","B3","G3","D3","A2","E2"],"comments":["Stave 1:","Stave 2:"],"timing":[["W","W","W","W","W",null,"W","W","W","W","W","W",null,"W","W","W","W","W","W",null,"W","W",null,null,"W","W","W","W","W",null,"W","W","W","W"],["W","W","W","W","W",null,"W","W","W","W","W","W",null,"W","W","W","W","W","W",null,"W"]],"timingvisible":false,"tabcounter":24,"stave":1,"totalstaves":2,"instrument":"6guitar","selectedtuning":"6_standard","version":"13"}

Member for

3 years 1 month
Submitted by musikida on Wed, 2019-09-25 04:53