Ring ring

01234567891011121314151617181920212223
E
B
G
D
A
E
B
0 1 2 3 4 5 6 7 8 9 10 11 12 13 14 15 16 17 18 19 20 21 22 23
(/) Slide Up  (\) Slide Down  (h) Hammer On  (p) Pull Off  (b) Bend (r) Release (v) Vibrato

Stave 1:

E|--------|--------------0--|-----------|--0--3--3--0--5--|-----------|--0--3--3--3--3--3--|--5--3--3--3--
B|--------|--0--3--3--0-----|-----3--3--|-----------------|-----1--1--|--------------------|--------------
G|--0--0--|-----------------|-----------|-----------------|-----------|--------------------|--------------
D|--------|-----------------|-----------|-----------------|-----------|--------------------|--------------
A|--------|-----------------|-----------|-----------------|-----------|--------------------|--------------
E|--------|-----------------|-----------|-----------------|-----------|--------------------|--------------

Stave 2:

E|-----|-----------|-----------|--------------0--|-----------|--0--3--3--0--5--|-----------|--0--3--3--
B|-----|--0--3-----|-----------|--0--3--3--0-----|-----3--3--|-----------------|-----1--1--|-----------
G|--0--|-----------|-----0--0--|-----------------|-----------|-----------------|-----------|-----------
D|-----|-----------|-----------|-----------------|-----------|-----------------|-----------|-----------
A|-----|-----------|-----------|-----------------|-----------|-----------------|-----------|-----------
E|-----|-----------|-----------|-----------------|-----------|-----------------|-----------|-----------

Stave 3:

E|--3--3--3--|--5--3--3--3-----|-----------|-----------2--5--5--2--7--|-----------|--2--5--5--2--7--|--
B|-----------|-----------------|--0--3-----|-----3--3-----------------|-----3--3--|-----------------|--
G|-----------|--------------0--|-----------|--------------------------|-----------|-----------------|--
D|-----------|-----------------|-----------|--------------------------|-----------|-----------------|--
A|-----------|-----------------|-----------|--------------------------|-----------|-----------------|--
E|-----------|-----------------|-----------|--------------------------|-----------|-----------------|--

Stave 4:

E|-----|--3-----3-----|--3--5--7--8--7--5--|--5-----|-----|--2-----2--2--|--2--3--5--7--5--3--|--3-----|--
B|-----|--------------|--------------------|--------|-----|--------------|--------------------|--------|--
G|-----|--------------|--------------------|--------|-----|--------------|--------------------|--------|--
D|-----|--------------|--------------------|--------|-----|--------------|--------------------|--------|--
A|-----|--------------|--------------------|--------|-----|--------------|--------------------|--------|--
E|-----|--------------|--------------------|--------|-----|--------------|--------------------|--------|--

Stave 5:

E|-----|--3-----3--3--|--3--5--7--8--7--5--|--5-----|-----------|--------------------|-----------------|--
B|-----|--------------|--------------------|--------|--------0--|--1--0--1-----1--0--|--1-----------0--|--
G|-----|--------------|--------------------|--------|-----2-----|-----------2--------|-----2-----2-----|--
D|-----|--------------|--------------------|--------|-----------|--------------------|-----------------|--
A|-----|--------------|--------------------|--------|-----------|--------------------|-----------------|--
E|-----|--------------|--------------------|--------|-----------|--------------------|-----------------|--

Stave 6:

E|--------------------|--------------|--------------|--------------------|--------|-----|--|--
B|--1--0--1-----1--0--|--1-----------|--------------|-----------0--------|--------|-----|--|--
G|-----------2--------|-----2--2--0--|--------------|-----0--2-----2--0--|--0-----|-----|--|--
D|--------------------|--------------|--4-----4-----|--4-----------------|--------|-----|--|--
A|--------------------|--------------|--------------|--------------------|--------|-----|--|--
E|--------------------|--------------|--------------|--------------------|--------|-----|--|--

							http://www.guitartabcreator.com
Chords

Instruments
{"title":"","strings":[[[".",".","|",".",".",".",".",0,"|","_",".",".","|",0,3,3,0,5,"|","_",".",".","|",0,3,3,3,3,3,"|",5,3,3,3],[".",".","|",0,3,3,0,".","|","_",3,3,"|",".",".",".",".",".","|","_",1,1,"|",".",".",".",".",".",".","|",".",".",".","."],[0,0,"|",".",".",".",".",".","|","_",".",".","|",".",".",".",".",".","|","_",".",".","|",".",".",".",".",".",".","|",".",".",".","."],[".",".","|",".",".",".",".",".","|","_",".",".","|",".",".",".",".",".","|","_",".",".","|",".",".",".",".",".",".","|",".",".",".","."],[".",".","|",".",".",".",".",".","|","_",".",".","|",".",".",".",".",".","|","_",".",".","|",".",".",".",".",".",".","|",".",".",".","."],[".",".","|",".",".",".",".",".","|","_",".",".","|",".",".",".",".",".","|","_",".",".","|",".",".",".",".",".",".","|",".",".",".","."]],[[".","|",".",".","_","|","_",".",".","|",".",".",".",".",0,"|","_",".",".","|",0,3,3,0,5,"|","_",".",".","|",0,3,3],[".","|",0,3,"_","|","_",".",".","|",0,3,3,0,".","|","_",3,3,"|",".",".",".",".",".","|","_",1,1,"|",".",".","."],[0,"|",".",".","_","|","_",0,0,"|",".",".",".",".",".","|","_",".",".","|",".",".",".",".",".","|","_",".",".","|",".",".","."],[".","|",".",".","_","|","_",".",".","|",".",".",".",".",".","|","_",".",".","|",".",".",".",".",".","|","_",".",".","|",".",".","."],[".","|",".",".","_","|","_",".",".","|",".",".",".",".",".","|","_",".",".","|",".",".",".",".",".","|","_",".",".","|",".",".","."],[".","|",".",".","_","|","_",".",".","|",".",".",".",".",".","|","_",".",".","|",".",".",".",".",".","|","_",".",".","|",".",".","."]],[[3,3,3,"|",5,3,3,3,".","|",".",".","_","|","_",".",".",2,5,5,2,7,"|","_",".",".","|",2,5,5,2,7,"|"],[".",".",".","|",".",".",".",".",".","|",0,3,"_","|","_",3,3,".",".",".",".",".","|","_",3,3,"|",".",".",".",".",".","|"],[".",".",".","|",".",".",".",".",0,"|",".",".","_","|","_",".",".",".",".",".",".",".","|","_",".",".","|",".",".",".",".",".","|"],[".",".",".","|",".",".",".",".",".","|",".",".","_","|","_",".",".",".",".",".",".",".","|","_",".",".","|",".",".",".",".",".","|"],[".",".",".","|",".",".",".",".",".","|",".",".","_","|","_",".",".",".",".",".",".",".","|","_",".",".","|",".",".",".",".",".","|"],[".",".",".","|",".",".",".",".",".","|",".",".","_","|","_",".",".",".",".",".",".",".","|","_",".",".","|",".",".",".",".",".","|"]],[["_","|",3,"_",3,"_","|",3,5,7,8,7,5,"|",5,"_","|","_","|",2,"_",2,2,"|",2,3,5,7,5,3,"|",3,"_","|"],["_","|",".","_",".","_","|",".",".",".",".",".",".","|",".","_","|","_","|",".","_",".",".","|",".",".",".",".",".",".","|",".","_","|"],["_","|",".","_",".","_","|",".",".",".",".",".",".","|",".","_","|","_","|",".","_",".",".","|",".",".",".",".",".",".","|",".","_","|"],["_","|",".","_",".","_","|",".",".",".",".",".",".","|",".","_","|","_","|",".","_",".",".","|",".",".",".",".",".",".","|",".","_","|"],["_","|",".","_",".","_","|",".",".",".",".",".",".","|",".","_","|","_","|",".","_",".",".","|",".",".",".",".",".",".","|",".","_","|"],["_","|",".","_",".","_","|",".",".",".",".",".",".","|",".","_","|","_","|",".","_",".",".","|",".",".",".",".",".",".","|",".","_","|"]],[["_","|",3,"_",3,3,"|",3,5,7,8,7,5,"|",5,"_","|","_",".",".","|",".",".",".",".",".",".","|",".",".","_",".",".","|"],["_","|",".","_",".",".","|",".",".",".",".",".",".","|",".","_","|","_",".",0,"|",1,0,1,".",1,0,"|",1,".","_",".",0,"|"],["_","|",".","_",".",".","|",".",".",".",".",".",".","|",".","_","|","_",2,".","|",".",".",".",2,".",".","|",".",2,"_",2,".","|"],["_","|",".","_",".",".","|",".",".",".",".",".",".","|",".","_","|","_",".",".","|",".",".",".",".",".",".","|",".",".","_",".",".","|"],["_","|",".","_",".",".","|",".",".",".",".",".",".","|",".","_","|","_",".",".","|",".",".",".",".",".",".","|",".",".","_",".",".","|"],["_","|",".","_",".",".","|",".",".",".",".",".",".","|",".","_","|","_",".",".","|",".",".",".",".",".",".","|",".",".","_",".",".","|"]],[[".",".",".",".",".",".","|",".",".",".",".","|",".","_",".","_","|",".",".",".",".",".",".","|",".","_","|","_","|","|"],[1,0,1,".",1,0,"|",1,".",".",".","|",".","_",".","_","|",".",".",".",0,".",".","|",".","_","|","_","|","|"],[".",".",".",2,".",".","|",".",2,2,0,"|",".","_",".","_","|",".",0,2,".",2,0,"|",0,"_","|","_","|","|"],[".",".",".",".",".",".","|",".",".",".",".","|",4,"_",4,"_","|",4,".",".",".",".",".","|",".","_","|","_","|","|"],[".",".",".",".",".",".","|",".",".",".",".","|",".","_",".","_","|",".",".",".",".",".",".","|",".","_","|","_","|","|"],[".",".",".",".",".",".","|",".",".",".",".","|",".","_",".","_","|",".",".",".",".",".",".","|",".","_","|","_","|","|"]]],"numberofstrings":6,"notes":["E","B","G","D","A","E","B"],"capo":0,"stringnotes":["E4","B3","G3","D3","A2","E2"],"comments":["Stave 1:","Stave 2:","Stave 3:","Stave 4:","Stave 5:","Stave 6:"],"timing":[["W","W",null,"W","W","W","W","W",null,null,"W","W",null,"W","W","W","W","W",null,null,"W","W",null,"W","W","W","W","W","W",null,"W","W","W","W"],["W",null,"W","W",null,null,null,"W","W",null,"W","W","W","W","W",null,null,"W","W",null,"W","W","W","W","W",null,null,"W","W",null,"W","W","W","W","W","W"],["W","W","W",null,"W","W","W","W","W",null,"W","W",null,null,null,"W","W","W","W","W","W","W",null,null,"W","W",null,"W","W","W","W","W"],[null,null,"W",null,"W",null,null,"W","W","W","W","W","W",null,"W",null,null,null,null,"W",null,"W","W",null,"W","W","W","W","W","W",null,"W"],[null,null,"W",null,"W","W",null,"W","W","W","W","W","W",null,"W",null,null,null,"W","W",null,"W","W","W","W","W","W",null,"W","W",null,"W","W"],["W","W","W","W","W","W",null,"W","W","W","W",null,"W",null,"W",null,null,"W","W","W","W","W","W",null,"W"]],"timingvisible":false,"tabcounter":30,"stave":5,"totalstaves":6,"instrument":"6guitar","selectedtuning":"6_standard","version":"13"}

Member for

3 years 1 month
Submitted by musikida on Tue, 2018-10-16 04:33