The Model

01234567891011121314151617181920212223
E
B
G
D
A
E
B
0 1 2 3 4 5 6 7 8 9 10 11 12 13 14 15 16 17 18 19 20 21 22 23
(/) Slide Up  (\) Slide Down  (h) Hammer On  (p) Pull Off  (b) Bend (r) Release (v) Vibrato

Stave 1:

E|--------------------|-----------------|-----|--------|--------------------|--------------|-----|--
B|-----------1--0-----|--0--------------|-----|--------|-----------1--0-----|--0-----------|-----|--
G|--2--2--2--------2--|--------0--------|-----|--------|--2--2--2--------2--|--------0-----|-----|--
D|--------------------|-----------2-----|-----|-----2--|--------------------|-----------2--|-----|--
A|--------------------|-----------------|-----|--------|--------------------|--------------|-----|--
E|--------------------|-----------------|-----|--------|--------------------|--------------|-----|--

Stave 2:

E|------|-----------------------|-----------------|-----|--------|--------------------------|--------------
B|------|--------------2--0-----|--0--------------|-----|--------|-----------------2--0-----|--0-----------
G|------|--2--2--2--2--------2--|--------0--------|-----|--------|--2--2--2--2--2--------2--|--------0-----
D|--2---|-----------------------|-----------2-----|-----|-----2--|--------------------------|-----------2--
A|------|-----------------------|-----------------|-----|--------|--------------------------|--------------
E|--21--|-----------------------|-----------------|-----|--------|--------------------------|--------------

Stave 3:

E|--0-----------0--0--1--|--0-----------0-----------|--0-----------0-----0--1--|--0-----------0-----
B|-----1-----1-----------|-----0-----0--------3-----|-----1-----1--------------|-----0-----0--------
G|--------2--------------|--------0-----------------|--------2-----------------|--------0-----------
D|-----------------------|--------------------------|--------------------------|--------------------
A|-----------------------|--------------------------|--------------------------|--------------------
E|-----------------------|--------------------------|--------------------------|--------------------

Stave 4:

E|-----|--------------------------|--------------|-----|--------|-----------------------|--------------|--
B|-----|-----------------1--0-----|--0-----------|-----|--------|--------------1--0-----|--0-----------|--
G|-----|--2--2--2--2--2--------1--|-----0--------|-----|--------|--2--2--2--2--------2--|-----0--------|--
D|--2--|--------------------------|--------2-----|-----|-----2--|-----------------------|--------2-----|--
A|-----|--------------------------|--------------|-----|--------|-----------------------|--------------|--
E|-----|--------------------------|--------------|-----|--------|-----------------------|--------------|--

Stave 5:

E|-----|-----|--------------------------|--------------|-----------------------|--------------------|--
B|-----|-----|-----------------1--0-----|--0-----------|-----------1-----1-----|--------------------|--
G|-----|-----|--2--2--2--2--2--------2--|-----0--------|--2-----2-----2-----2--|-----------0-----0--|--
D|-----|--2--|--------------------------|--------2-----|-----------------------|--2-----2-----2-----|--
A|-----|-----|--------------------------|--------------|-----------------------|--------------------|--
E|-----|-----|--------------------------|--------------|-----------------------|--------------------|--

Stave 6:

E|--------------------|--------------|--------|--
B|--------------------|--------------|--------|--
G|-----------0-----0--|--2-----------|--------|--
D|--2-----2-----2-----|--------------|--------|--
A|--------------------|--------------|--------|--
E|--------------------|--------------|--------|--

							http://www.guitartabcreator.com
Chords

Instruments
{"title":"The Model","strings":[[[".",".",".",".",".",".","|",".","_",".",".","_","|","_","|","_",".","|",".",".",".",".",".",".","|",".","_",".",".","|","_","|"],[".",".",".",1,0,".","|",0,"_",".",".","_","|","_","|","_",".","|",".",".",".",1,0,".","|",0,"_",".",".","|","_","|"],[2,2,2,".",".",2,"|",".","_",0,".","_","|","_","|","_",".","|",2,2,2,".",".",2,"|",".","_",0,".","|","_","|"],[".",".",".",".",".",".","|",".","_",".",2,"_","|","_","|","_",2,"|",".",".",".",".",".",".","|",".","_",".",2,"|","_","|"],[".",".",".",".",".",".","|",".","_",".",".","_","|","_","|","_",".","|",".",".",".",".",".",".","|",".","_",".",".","|","_","|"],[".",".",".",".",".",".","|",".","_",".",".","_","|","_","|","_",".","|",".",".",".",".",".",".","|",".","_",".",".","|","_","|"]],[[".","|",".",".",".",".",".",".",".","|",".","_",".",".","_","|","_","|","_",".","|",".",".",".",".",".",".",".",".","|",".","_",".","."],[".","|",".",".",".",".",2,0,".","|",0,"_",".",".","_","|","_","|","_",".","|",".",".",".",".",".",2,0,".","|",0,"_",".","."],[".","|",2,2,2,2,".",".",2,"|",".","_",0,".","_","|","_","|","_",".","|",2,2,2,2,2,".",".",2,"|",".","_",0,"."],[2,"|",".",".",".",".",".",".",".","|",".","_",".",2,"_","|","_","|","_",2,"|",".",".",".",".",".",".",".",".","|",".","_",".",2],[".","|",".",".",".",".",".",".",".","|",".","_",".",".","_","|","_","|","_",".","|",".",".",".",".",".",".",".",".","|",".","_",".","."],[21,"|",".",".",".",".",".",".",".","|",".","_",".",".","_","|","_","|","_",".","|",".",".",".",".",".",".",".",".","|",".","_",".","."]],[[0,".",".",".",0,0,1,"|",0,".",".",".",0,"_",".","_","|",0,".",".",".",0,"_",0,1,"|",0,".",".",".",0,"_"],[".",1,".",1,".",".",".","|",".",0,".",0,".","_",3,"_","|",".",1,".",1,".","_",".",".","|",".",0,".",0,".","_"],[".",".",2,".",".",".",".","|",".",".",0,".",".","_",".","_","|",".",".",2,".",".","_",".",".","|",".",".",0,".",".","_"],[".",".",".",".",".",".",".","|",".",".",".",".",".","_",".","_","|",".",".",".",".",".","_",".",".","|",".",".",".",".",".","_"],[".",".",".",".",".",".",".","|",".",".",".",".",".","_",".","_","|",".",".",".",".",".","_",".",".","|",".",".",".",".",".","_"],[".",".",".",".",".",".",".","|",".",".",".",".",".","_",".","_","|",".",".",".",".",".","_",".",".","|",".",".",".",".",".","_"]],[[".","|",".",".",".",".",".",".",".",".","|",".",".",".","_","|","_","|","_",".","|",".",".",".",".",".",".",".","|",".",".",".","_","|"],[".","|",".",".",".",".",".",1,0,".","|",0,".",".","_","|","_","|","_",".","|",".",".",".",".",1,0,".","|",0,".",".","_","|"],[".","|",2,2,2,2,2,".",".",1,"|",".",0,".","_","|","_","|","_",".","|",2,2,2,2,".",".",2,"|",".",0,".","_","|"],[2,"|",".",".",".",".",".",".",".",".","|",".",".",2,"_","|","_","|","_",2,"|",".",".",".",".",".",".",".","|",".",".",2,"_","|"],[".","|",".",".",".",".",".",".",".",".","|",".",".",".","_","|","_","|","_",".","|",".",".",".",".",".",".",".","|",".",".",".","_","|"],[".","|",".",".",".",".",".",".",".",".","|",".",".",".","_","|","_","|","_",".","|",".",".",".",".",".",".",".","|",".",".",".","_","|"]],[["_","|",".","|",".",".",".",".",".",".",".",".","|",".",".",".","_","|",".","_",".",".",".",".",".","|",".","_",".",".",".",".","|"],["_","|",".","|",".",".",".",".",".",1,0,".","|",0,".",".","_","|",".","_",".",1,".",1,".","|",".","_",".",".",".",".","|"],["_","|",".","|",2,2,2,2,2,".",".",2,"|",".",0,".","_","|",2,"_",2,".",2,".",2,"|",".","_",".",0,".",0,"|"],["_","|",2,"|",".",".",".",".",".",".",".",".","|",".",".",2,"_","|",".","_",".",".",".",".",".","|",2,"_",2,".",2,".","|"],["_","|",".","|",".",".",".",".",".",".",".",".","|",".",".",".","_","|",".","_",".",".",".",".",".","|",".","_",".",".",".",".","|"],["_","|",".","|",".",".",".",".",".",".",".",".","|",".",".",".","_","|",".","_",".",".",".",".",".","|",".","_",".",".",".",".","|"]],[[".","_",".",".",".",".","|",".","_","_","_","|","_","_","|"],[".","_",".",".",".",".","|",".","_","_","_","|","_","_","|"],[".","_",".",0,".",0,"|",2,"_","_","_","|","_","_","|"],[2,"_",2,".",2,".","|",".","_","_","_","|","_","_","|"],[".","_",".",".",".",".","|",".","_","_","_","|","_","_","|"],[".","_",".",".",".",".","|",".","_","_","_","|","_","_","|"]]],"numberofstrings":6,"notes":["E","B","G","D","A","E","B"],"capo":0,"stringnotes":["E4","B3","G3","D3","A2","E2"],"comments":["Stave 1:","Stave 2:","Stave 3:","Stave 4:","Stave 5:","Stave 6:"],"timing":[["W","W","W","W","W","W","W","W","W","W","W",null,null,null,null,null,"W",null,"W","W","W","W","W","W",null,"W",null,"W","W",null,null,null,null,"W"],["W",null,"W","W","W","W","W","W","W",null,"W",null,"W","W",null,null,null,null,null,"W",null,"W","W","W","W","W","W","W","W",null,"W",null,"W","W","W"],["W","W","W","W","W","W","W",null,"W","W","W","W","W","W","W",null,null,"W","W","W","W","W","W","W","W",null,"W","W","W","W","W"],["W",null,"W","W","W","W","W","W","W","W","W","W","W","W",null,null,null,null,null,"W",null,"W","W","W","W","W","W","W",null,"W","W","W"],[null,null,"W",null,"W","W","W","W","W","W","W","W",null,"W","W","W",null,null,"W",null,"W","W","W","W","W",null,"W",null,"W","W","W","W",null,"W",null,"W","W","W","W","W"],["W",null,"W","W","W","W",null,"W"]],"timingvisible":false,"tabcounter":15,"stave":5,"totalstaves":6,"instrument":"6guitar","selectedtuning":"6_standard","version":"13"}

Member for

3 years 1 month
Submitted by musikida on Tue, 2018-10-09 05:48