Guantanamera

01234567891011121314151617181920212223
E
B
G
D
A
E
B
0 1 2 3 4 5 6 7 8 9 10 11 12 13 14 15 16 17 18 19 20 21 22 23
(/) Slide Up  (\) Slide Down  (h) Hammer On  (p) Pull Off  (b) Bend (r) Release (v) Vibrato

Stave 1:

E|--------------------------------------------------------------------------------------------------|--
B|--1--1--1--3--3--------3--3--1--3-----1--1-----------1--3-----1-----3-----------------------------|--
G|--------------------3--------------3-----------2--3--------------------3--0-----------------------|--
D|-----------------------------------------------------------------------------3--3--2--0-----------|--
A|--------------------------------------------------------------------------------------------3-----|--
E|--------------------------------------------------------------------------------------------------|--

Stave 2:

E|--------------------------------------------------------------------------------------------------
B|--------------------------------------------------------------------------------------1--1--1-----
G|-----------------------------0--2--3--2--------0--0--------------------------------0--------------
D|--3--5--3--5--5--3--5--5-----------------3--0-----------3--5--3--5--5--3--5--5--------------------
A|--------------------------------------------------------------------------------------------------
E|--------------------------------------------------------------------------------------------------

Stave 3:

E|--------------------------------------------------------------------------|--
B|--------------------------1--1--1--3-----1-----3--------------------------|--
G|--3--2--0--0-----0--2--3--------------------------3--0--------------------|--
D|--------------------------------------------------------3--3--2--0--------|--
A|-----------------------------------------------------------------------3--|--
E|--------------------------------------------------------------------------|--

Stave 4:

E|--
B|--
G|--
D|--
A|--
E|--

							http://www.guitartabcreator.com
Chords

Instruments
{"title":"","strings":[[[".",".",".",".",".","_",".",".",".",".",".",".",".",".","_",".",".",".",".","_",".","_",".",".",".",".",".",".",".","_",".","_","|"],[1,1,1,3,3,"_",".",3,3,1,3,".",1,1,"_",".",".",1,3,"_",1,"_",3,".",".",".",".",".",".","_",".","_","|"],[".",".",".",".",".","_",3,".",".",".",".",3,".",".","_",2,3,".",".","_",".","_",".",3,0,".",".",".",".","_",".","_","|"],[".",".",".",".",".","_",".",".",".",".",".",".",".",".","_",".",".",".",".","_",".","_",".",".",".",3,3,2,0,"_",".","_","|"],[".",".",".",".",".","_",".",".",".",".",".",".",".",".","_",".",".",".",".","_",".","_",".",".",".",".",".",".",".","_",3,"_","|"],[".",".",".",".",".","_",".",".",".",".",".",".",".",".","_",".",".",".",".","_",".","_",".",".",".",".",".",".",".","_",".","_","|"]],[[".",".",".",".",".",".",".",".","_",".",".",".",".",".",".",".",".","_",".",".",".",".",".",".",".",".","_",".",".",".",".","_"],[".",".",".",".",".",".",".",".","_",".",".",".",".",".",".",".",".","_",".",".",".",".",".",".",".",".","_",".",1,1,1,"_"],[".",".",".",".",".",".",".",".","_",0,2,3,2,".",".",0,0,"_",".",".",".",".",".",".",".",".","_",0,".",".",".","_"],[3,5,3,5,5,3,5,5,"_",".",".",".",".",3,0,".",".","_",3,5,3,5,5,3,5,5,"_",".",".",".",".","_"],[".",".",".",".",".",".",".",".","_",".",".",".",".",".",".",".",".","_",".",".",".",".",".",".",".",".","_",".",".",".",".","_"],[".",".",".",".",".",".",".",".","_",".",".",".",".",".",".",".",".","_",".",".",".",".",".",".",".",".","_",".",".",".",".","_"]],[[".",".",".",".","_",".",".",".",".",".",".",".","_",".","_",".",".",".",".",".",".",".","_",".","|"],[".",".",".",".","_",".",".",".",1,1,1,3,"_",1,"_",3,".",".",".",".",".",".","_",".","|"],[3,2,0,0,"_",0,2,3,".",".",".",".","_",".","_",".",3,0,".",".",".",".","_",".","|"],[".",".",".",".","_",".",".",".",".",".",".",".","_",".","_",".",".",".",3,3,2,0,"_",".","|"],[".",".",".",".","_",".",".",".",".",".",".",".","_",".","_",".",".",".",".",".",".",".","_",3,"|"],[".",".",".",".","_",".",".",".",".",".",".",".","_",".","_",".",".",".",".",".",".",".","_",".","|"]],[[],[],[],[],[],[]]],"numberofstrings":6,"notes":["E","B","G","D","A","E","B"],"capo":0,"stringnotes":["E4","B3","G3","D3","A2","E2"],"comments":["Stave 1:","Stave 2:","Stave 3:","Stave 4:"],"timing":[["W","W","W","W","W",null,"W","W","W","W","W","W","W","W",null,"W","W","W","W",null,"W",null,"W","W","W","W","W","W","W",null,"W",null,"W","W","W","W","W","W","W","W"],["W","W","W","W","W","W","W","W",null,"W","W","W","W","W","W","W","W",null,"W","W","W","W","W","W","W","W",null,"W","W","W","W",null,"W","W","W","W"],["W","W","W","W",null,"W","W","W","W","W","W","W",null,"W",null,"W","W","W","W","W","W","W",null,"W"],[]],"timingvisible":false,"tabcounter":0,"stave":3,"totalstaves":4,"instrument":"6guitar","selectedtuning":"6_standard","version":"13"}

Member for

3 years 1 month
Submitted by musikida on Tue, 2018-10-09 05:03