7 years

01234567891011121314151617181920212223
E
B
G
D
A
E
B
0 1 2 3 4 5 6 7 8 9 10 11 12 13 14 15 16 17 18 19 20 21 22 23
(/) Slide Up  (\) Slide Down  (h) Hammer On  (p) Pull Off  (b) Bend (r) Release (v) Vibrato

Stave 1:

E|-----6--5--3-----|--------------|-----------6--5--3-----|--------------|-----------
B|--------------7--|--4--7--4--7--|--4--7--------------7--|--4--7--4--7--|--4--7-----
G|-----------------|--------------|-----------------------|--------------|-----------
D|-----------------|--------------|-----------------------|--------------|-----------
A|-----------------|--------------|-----------------------|--------------|-----------
E|-----------------|--------------|-----------------------|--------------|-----------

Stave 2:

E|--6--5--3-----|--------------|-----------6--5--3-----|--------------|-----------|--
B|-----------7--|--4--7--4--7--|--4--7--------------7--|--4--7--4--7--|--4--------|--
G|--------------|--------------|-----------------------|--------------|-----------|--
D|--------------|--------------|-----------------------|--------------|-----------|--
A|--------------|--------------|-----------------------|--------------|-----------|--
E|--------------|--------------|-----------------------|--------------|-----------|--

							http://www.guitartabcreator.com
Chords

Instruments
{"title":"7 years","strings":[[["_",6,5,3,".","|",".",".",".",".","|",".",".","_",6,5,3,".","|",".",".",".",".","|",".",".","_"],["_",".",".",".",7,"|",4,7,4,7,"|",4,7,"_",".",".",".",7,"|",4,7,4,7,"|",4,7,"_"],["_",".",".",".",".","|",".",".",".",".","|",".",".","_",".",".",".",".","|",".",".",".",".","|",".",".","_"],["_",".",".",".",".","|",".",".",".",".","|",".",".","_",".",".",".",".","|",".",".",".",".","|",".",".","_"],["_",".",".",".",".","|",".",".",".",".","|",".",".","_",".",".",".",".","|",".",".",".",".","|",".",".","_"],["_",".",".",".",".","|",".",".",".",".","|",".",".","_",".",".",".",".","|",".",".",".",".","|",".",".","_"]],[[6,5,3,".","|",".",".",".",".","|",".",".","_",6,5,3,".","|",".",".",".",".","|",".","_","_","|"],[".",".",".",7,"|",4,7,4,7,"|",4,7,"_",".",".",".",7,"|",4,7,4,7,"|",4,"_","_","|"],[".",".",".",".","|",".",".",".",".","|",".",".","_",".",".",".",".","|",".",".",".",".","|",".","_","_","|"],[".",".",".",".","|",".",".",".",".","|",".",".","_",".",".",".",".","|",".",".",".",".","|",".","_","_","|"],[".",".",".",".","|",".",".",".",".","|",".",".","_",".",".",".",".","|",".",".",".",".","|",".","_","_","|"],[".",".",".",".","|",".",".",".",".","|",".",".","_",".",".",".",".","|",".",".",".",".","|",".","_","_","|"]]],"numberofstrings":6,"notes":["E","B","G","D","A","E","B"],"capo":0,"stringnotes":["E4","B3","G3","D3","A2","E2"],"comments":["Stave 1:","Stave 2:"],"timing":[[null,"W","W","W","W",null,"W","W","W","W","W","W","W",null,"W","W","W","W",null,"W","W","W","W",null,"W","W",null,"W","W","W","W"],["W","W","W","W",null,"W","W","W","W","W","W","W",null,"W","W","W","W",null,"W","W","W","W",null,"W"]],"timingvisible":false,"tabcounter":27,"stave":0,"totalstaves":2,"instrument":"6guitar","selectedtuning":"6_standard","version":"13"}

Member for

3 years 1 month
Submitted by musikida on Wed, 2019-09-25 06:31