Meu Deus Vence Batalhas

Chords

01234567891011121314151617181920212223
E
B
G
D
A
E
B
0 1 2 3 4 5 6 7 8 9 10 11 12 13 14 15 16 17 18 19 20 21 22 23
(/) Slide Up  (\) Slide Down  (h) Hammer On  (p) Pull Off  (b) Bend (r) Release (v) Vibrato

Stave 1:

E|-----------------------------------------------------------------------------------
B|-----------------------------------------------------------------------------------
G|-----------------------------------------------------------------------------------
D|----------------------------------------------------------7/9\7--5/7\5--4--5-------
A|--7/9--9\7--7\5--5-----9/10--10\9--9\7--7-----4/5\4--5/7----------------------3/5--
E|--------------------5----------------------5---------------------------------------

Stave 2:

E|-----------------------------------------------------------------------------------
B|-------------------------------5/7--7\5--5\3--3-----7h8--8p7--7\5--5--------2h3p2--
G|-------------------------------------------------2--------------------7--6---------
D|-------4--5--5--4/5--5/7--7\2-----------------------------------------7--7---------
A|--5/7------------------------------------------------------------------------------
E|-----------------------------------------------------------------------------------

Stave 3:

E|-------5/7--5-------------------------------------------------------------------------
B|--3/5----------8b10r8--7--8----------5/7--7h8--8--7--8--14b15--14b15r14h12--14--------
G|-----------------------------5/8--8---------------------------------------------7--6--
D|--------------------------------------------------------------------------------7--7--
A|--------------------------------------------------------------------------------------
E|--------------------------------------------------------------------------------------

Stave 4:

E|--------------------------------------------------------------------------------------
B|--------------------------------------------------------------------------------------
G|-------------4--6b7r6-----4--2-------------4--6--7b9r7-----7--4--6/7--7\6--6\4--4--4--
D|--5/7--7--7------------7--5--4--5/7--7--7---------------7--7--7-----------------------
A|--------------------------------------------------------------------------------------
E|--------------------------------------------------------------------------------------

Stave 5:

E|------------------------------------------------------------------------------------
B|---------------------------------------------------------------10-------------------
G|--2/4--4\2-----------------------------------7-----9-----9b11------11r9p7--9--7--6--
D|------------5--5--5--4--5p4--5--7--5/7--5/7-----7-----7-----------------------7--7--
A|------------------------------------------------------------------------------------
E|------------------------------------------------------------------------------------

Stave 6:

E|------------12--12b14r12--10\9--10------------10------12------12b14r12b14--12r10--12--17--12--
B|--8/10--10--------------------------10--8/10------10------10----------------------------------
G|----------------------------------------------------------------------------------------------
D|----------------------------------------------------------------------------------------------
A|----------------------------------------------------------------------------------------------
E|----------------------------------------------------------------------------------------------

Stave 7:

E|-----------------------12------------------------------------------0--------------------------
B|--10--12--12b14r12h10------14--14b15r14--12\12--12--7/8--8\7--5\3-----5/7--7\5--5\3--3--------
G|----------------------------------------------------------------------------------------2-----
D|----------------------------------------------------------------------------------------------
A|----------------------------------------------------------------------------------------------
E|----------------------------------------------------------------------------------------------

Stave 8:

E|------------------------------------------10------12------12b14r12p10--12--9h10p9----------------
B|--------5/7--7\5--3/5\3--3----------8/10------10------10---------------------------10-----12b14--
G|--4--3----------------------2h4--2-----------------------------------------------------9---------
D|-------------------------------------------------------------------------------------------------
A|--2--1-------------------------------------------------------------------------------------------
E|-------------------------------------------------------------------------------------------------

Stave 9:

E|-------------12--9h10p9--10/12--17b19r17--15b17r15--14--15-----------------14--15--15--14--15--15/17--
B|--14r12--10-------------------------------------------------14/15--15--17-----------------------------
G|------------------------------------------------------------------------------------------------------
D|------------------------------------------------------------------------------------------------------
A|------------------------------------------------------------------------------------------------------
E|------------------------------------------------------------------------------------------------------

Stave 10:

E|----------14--17p14--17b19r17--14--14h15p14---------------------------------------------------------------
B|------15-------------------------------------15-------------------------------------------------10/12\10--
G|--14---------------------------------------------14--12--11--12--11--11--9---11--9---6h7p6p7/9------------
D|-----------------------------------------------------12--12--12--12--12--11--11--11-----------------------
A|----------------------------------------------------------------------------------------------------------
E|----------------------------------------------------------------------------------------------------------

Stave 11:

E|--------9/10-----------------------------------------------------------------------------------------------
B|--8/10--------7/8----------5--7--7/8--8--7--8--8/10--------------------------------------------------------
G|-------------------5/7--7----------------------------------------------------------------------------------
D|-----------------------------------------------------------------------------------------5--7--9--5--7--9--
A|-----------------------------------------------------------------------5--7--9--5--7--9--------------------
E|-----------------------------------------------------5--7--9--5--7--9--------------------------------------

Stave 12:

E|----------------------------------------7--9--10--7--9--10--------10------12------12b14r12--10--12b14r12--
B|--------------------7--8--10--7--8--10----------------------8/10------10------10--------------------------
G|--6--7--9--6--7--9----------------------------------------------------------------------------------------
D|----------------------------------------------------------------------------------------------------------
A|----------------------------------------------------------------------------------------------------------
E|----------------------------------------------------------------------------------------------------------

Stave 13:

E|--12--10\9--10----------------17--------------------------------9--12p9--12/14--12--10\9--10--9--
B|----------------17b19--17b19--19--17b19r17p15--17-----------10-----------------------------------
G|---------------------------------------------------------9---------------------------------------
D|---------------------------------------------------7h11------------------------------------------
A|-------------------------------------------------------------------------------------------------
E|-------------------------------------------------------------------------------------------------

Stave 14:

E|--7----------------7----------------7----------------7----------------7----------------7---------10/12r10--
B|-----10--7--10/12-----10--7--10/12-----10--7--10/12-----10--7--10/12-----10--7--10/12-----10--7------------
G|-----------------------------------------------------------------------------------------------------------
D|-----------------------------------------------------------------------------------------------------------
A|-----------------------------------------------------------------------------------------------------------
E|-----------------------------------------------------------------------------------------------------------

Stave 15:

E|--7h10p7------7----------------------------------------------------10------12------12b14r12--10\9--10--
B|----------10-----10b12r10p7--------10-------------10/12--10--8/10------10------10----------------------
G|-----------------------------9b11------11r9p7--9-------------------------------------------------------
D|-------------------------------------------------------------------------------------------------------
A|-------------------------------------------------------------------------------------------------------
E|-------------------------------------------------------------------------------------------------------

Stave 16:

E|---------------------------------------------------------------------------------10--12--
B|--10h12p10------------------------------------7/8\7--10/12\10--8/10--10--10--12----------
G|------------11h12p11-------------------7/9\7---------------------------------------------
D|----------------------7h9p7-----7/9\7----------------------------------------------------
A|-----------------------------------------------------------------------------------------
E|-----------------------------------------------------------------------------------------

Stave 17:

E|--17--|--9p5--9p5--9--17--|--9--9/10\9\7\5--5--7--7--2--2h3p2----------------------------
B|------|-------------------|------------------------------------5--3--5-------------------
G|------|-------------------|--------------------------------------------------------------
D|------|-------------------|--------------------------------------------------------------
A|------|-------------------|---------------------------------------------7/9--9\7--5/7\5--
E|------|-------------------|--------------------------------------------------------------

							http://www.guitartabcreator.com
Tab Notes
5x inicio stave 17 final stave 17 passar a palheta nas costdas graves de baixo para cima
Instruments
{"strings":[[[".",".",".",".",".",".",".",".",".",".",".",".",".",".",".",".",".",".",".",".",".",".",".",".",".",".",".",".",".",".",".",".",".",".",".",".",".",".",".",".",".",".",".",".","."],[".",".",".",".",".",".",".",".",".",".",".",".",".",".",".",".",".",".",".",".",".",".",".",".",".",".",".",".",".",".",".",".",".",".",".",".",".",".",".",".",".",".",".",".","."],[".",".",".",".",".",".",".",".",".",".",".",".",".",".",".",".",".",".",".",".",".",".",".",".",".",".",".",".",".",".",".",".",".",".",".",".",".",".",".",".",".",".",".",".","."],[".",".",".",".",".",".",".",".",".",".",".",".",".",".",".",".",".",".",".",".",".",".",".",".",".",".",".",".",".",".",7,"/",9,"\\",7,5,"/",7,"\\",5,4,5,".",".","."],[7,"/",9,9,"\\",7,7,"\\",5,5,".",9,"/",10,10,"\\",9,9,"\\",7,7,".",4,"/",5,"\\",4,5,"/",7,".",".",".",".",".",".",".",".",".",".",".",".",3,"/",5],[".",".",".",".",".",".",".",".",".",".",5,".",".",".",".",".",".",".",".",".",".",5,".",".",".",".",".",".",".",".",".",".",".",".",".",".",".",".",".",".",".",".",".",".","."]],[[".",".",".",".",".",".",".",".",".",".",".",".",".",".",".",".",".",".",".",".",".",".",".",".",".",".",".",".",".",".",".",".",".",".",".",".",".",".",".",".",".",".","."],[".",".",".",".",".",".",".",".",".",".",".",".",".",".",".",5,"/",7,7,"\\",5,5,"\\",3,3,".",7,"h",8,8,"p",7,7,"\\",5,5,".",".",2,"h",3,"p",2],[".",".",".",".",".",".",".",".",".",".",".",".",".",".",".",".",".",".",".",".",".",".",".",".",".",2,".",".",".",".",".",".",".",".",".",".",7,6,".",".",".",".","."],[".",".",".",4,5,5,4,"/",5,5,"/",7,7,"\\",2,".",".",".",".",".",".",".",".",".",".",".",".",".",".",".",".",".",".",".",".",".",7,7,".",".",".",".","."],[5,"/",7,".",".",".",".",".",".",".",".",".",".",".",".",".",".",".",".",".",".",".",".",".",".",".",".",".",".",".",".",".",".",".",".",".",".",".",".",".",".",".","."],[".",".",".",".",".",".",".",".",".",".",".",".",".",".",".",".",".",".",".",".",".",".",".",".",".",".",".",".",".",".",".",".",".",".",".",".",".",".",".",".",".",".","."]],[[".",".",".",5,"/",7,5,".",".",".",".",".",".",".",".",".",".",".",".",".",".",".",".",".",".",".",".",".",".",".",".",".",".",".",".",".",".",".",".","."],[3,"/",5,".",".",".",".",8,"b",10,"r",8,7,8,".",".",".",".",5,"/",7,7,"h",8,8,7,8,14,"b",15,14,"b",15,"r",14,"h",12,14,".","."],[".",".",".",".",".",".",".",".",".",".",".",".",".",".",5,"/",8,8,".",".",".",".",".",".",".",".",".",".",".",".",".",".",".",".",".",".",".",".",7,6],[".",".",".",".",".",".",".",".",".",".",".",".",".",".",".",".",".",".",".",".",".",".",".",".",".",".",".",".",".",".",".",".",".",".",".",".",".",".",7,7],[".",".",".",".",".",".",".",".",".",".",".",".",".",".",".",".",".",".",".",".",".",".",".",".",".",".",".",".",".",".",".",".",".",".",".",".",".",".",".","."],[".",".",".",".",".",".",".",".",".",".",".",".",".",".",".",".",".",".",".",".",".",".",".",".",".",".",".",".",".",".",".",".",".",".",".",".",".",".",".","."]],[[".",".",".",".",".",".",".",".",".",".",".",".",".",".",".",".",".",".",".",".",".",".",".",".",".",".",".",".",".",".",".",".",".",".",".",".",".",".",".","."],[".",".",".",".",".",".",".",".",".",".",".",".",".",".",".",".",".",".",".",".",".",".",".",".",".",".",".",".",".",".",".",".",".",".",".",".",".",".",".","."],[".",".",".",".",".",4,6,"b",7,"r",6,".",4,2,".",".",".",".",".",4,6,7,"b",9,"r",7,".",7,4,6,"/",7,7,"\\",6,6,"\\",4,4,4],[5,"/",7,7,7,".",".",".",".",".",".",7,5,4,5,"/",7,7,7,".",".",".",".",".",".",".",7,7,7,".",".",".",".",".",".",".",".",".",".","."],[".",".",".",".",".",".",".",".",".",".",".",".",".",".",".",".",".",".",".",".",".",".",".",".",".",".",".",".",".",".",".",".",".",".",".",".",".",".",".","."],[".",".",".",".",".",".",".",".",".",".",".",".",".",".",".",".",".",".",".",".",".",".",".",".",".",".",".",".",".",".",".",".",".",".",".",".",".",".",".","."]],[[".",".",".",".",".",".",".",".",".",".",".",".",".",".",".",".",".",".",".",".",".",".",".",".",".",".",".",".",".",".",".",".",".",".",".",".","."],[".",".",".",".",".",".",".",".",".",".",".",".",".",".",".",".",".",".",".",".",".",".",".",".",".",".",".",".",10,".",".",".",".",".",".",".","."],[2,"/",4,4,"\\",2,".",".",".",".",".",".",".",".",".",".",".",".",".",".",".",7,".",9,".",9,"b",11,".",11,"r",9,"p",7,9,7,6],[".",".",".",".",".",".",5,5,5,4,5,"p",4,5,7,5,"/",7,5,"/",7,".",7,".",7,".",".",".",".",".",".",".",".",".",".",7,7],[".",".",".",".",".",".",".",".",".",".",".",".",".",".",".",".",".",".",".",".",".",".",".",".",".",".",".",".",".",".",".",".",".",".",".",".","."],[".",".",".",".",".",".",".",".",".",".",".",".",".",".",".",".",".",".",".",".",".",".",".",".",".",".",".",".",".",".",".",".",".",".",".",".","."]],[[".",".",".",".",12,12,"b",14,"r",12,10,"\\",9,10,".",".",".",".",10,".",12,".",12,"b",14,"r",12,"b",14,12,"r",10,12,17,12],[8,"/",10,10,".",".",".",".",".",".",".",".",".",".",10,8,"/",10,".",10,".",10,".",".",".",".",".",".",".",".",".",".",".",".","."],[".",".",".",".",".",".",".",".",".",".",".",".",".",".",".",".",".",".",".",".",".",".",".",".",".",".",".",".",".",".",".",".",".",".","."],[".",".",".",".",".",".",".",".",".",".",".",".",".",".",".",".",".",".",".",".",".",".",".",".",".",".",".",".",".",".",".",".",".",".","."],[".",".",".",".",".",".",".",".",".",".",".",".",".",".",".",".",".",".",".",".",".",".",".",".",".",".",".",".",".",".",".",".",".",".","."],[".",".",".",".",".",".",".",".",".",".",".",".",".",".",".",".",".",".",".",".",".",".",".",".",".",".",".",".",".",".",".",".",".",".","."]],[[".",".",".",".",".",".",".",".",".",12,".",".",".",".",".",".",".",".",".",".",".",".",".",".",".",".",".",".",".",0,".",".",".",".",".",".",".",".",".",".",".","_"],[10,12,12,"b",14,"r",12,"h",10,".",14,14,"b",15,"r",14,12,"\\",12,12,7,"/",8,8,"\\",7,5,"\\",3,".",5,"/",7,7,"\\",5,5,"\\",3,3,".","_"],[".",".",".",".",".",".",".",".",".",".",".",".",".",".",".",".",".",".",".",".",".",".",".",".",".",".",".",".",".",".",".",".",".",".",".",".",".",".",".",".",2,"_"],[".",".",".",".",".",".",".",".",".",".",".",".",".",".",".",".",".",".",".",".",".",".",".",".",".",".",".",".",".",".",".",".",".",".",".",".",".",".",".",".",".","_"],[".",".",".",".",".",".",".",".",".",".",".",".",".",".",".",".",".",".",".",".",".",".",".",".",".",".",".",".",".",".",".",".",".",".",".",".",".",".",".",".",".","_"],[".",".",".",".",".",".",".",".",".",".",".",".",".",".",".",".",".",".",".",".",".",".",".",".",".",".",".",".",".",".",".",".",".",".",".",".",".",".",".",".",".","_"]],[[".",".",".",".",".",".",".",".",".",".",".",".",".",".",".",".",".",".",".",".",".",10,".",12,".",12,"b",14,"r",12,"p",10,12,9,"h",10,"p",9,".",".",".",".","."],[".",".",5,"/",7,7,"\\",5,3,"/",5,"\\",3,3,".",".",".",".",8,"/",10,".",10,".",10,".",".",".",".",".",".",".",".",".",".",".",".",".",10,".",12,"b",14],[4,3,".",".",".",".",".",".",".",".",".",".",".",".",2,"h",4,2,".",".",".",".",".",".",".",".",".",".",".",".",".",".",".",".",".",".",".",".",".",9,".",".","."],[".",".",".",".",".",".",".",".",".",".",".",".",".",".",".",".",".",".",".",".",".",".",".",".",".",".",".",".",".",".",".",".",".",".",".",".",".",".",".",".",".",".","."],[2,1,".",".",".",".",".",".",".",".",".",".",".",".",".",".",".",".",".",".",".",".",".",".",".",".",".",".",".",".",".",".",".",".",".",".",".",".",".",".",".",".","."],[".",".",".",".",".",".",".",".",".",".",".",".",".",".",".",".",".",".",".",".",".",".",".",".",".",".",".",".",".",".",".",".",".",".",".",".",".",".",".",".",".",".","."]],[[".",".",".",".",12,9,"h",10,"p",9,10,"/",12,17,"b",19,"r",17,15,"b",17,"r",15,14,15,".",".",".",".",".",14,15,15,14,15,15,"/",17],[14,"r",12,10,".",".",".",".",".",".",".",".",".",".",".",".",".",".",".",".",".",".",".",".",".",14,"/",15,15,17,".",".",".",".",".",".",".","."],[".",".",".",".",".",".",".",".",".",".",".",".",".",".",".",".",".",".",".",".",".",".",".",".",".",".",".",".",".",".",".",".",".",".",".",".",".","."],[".",".",".",".",".",".",".",".",".",".",".",".",".",".",".",".",".",".",".",".",".",".",".",".",".",".",".",".",".",".",".",".",".",".",".",".",".","."],[".",".",".",".",".",".",".",".",".",".",".",".",".",".",".",".",".",".",".",".",".",".",".",".",".",".",".",".",".",".",".",".",".",".",".",".",".","."],[".",".",".",".",".",".",".",".",".",".",".",".",".",".",".",".",".",".",".",".",".",".",".",".",".",".",".",".",".",".",".",".",".",".",".",".",".","."]],[[".",".",14,17,"p",14,17,"b",19,"r",17,14,14,"h",15,"p",14,".",".",".",".",".",".",".",".",".",".",".",".",".",".",".",".",".",".",".",".",".",".",".","."],[".",15,".",".",".",".",".",".",".",".",".",".",".",".",".",".",".",15,".",".",".",".",".",".",".",".",".",".",".",".",".",".",".",".",".",".",10,"/",12,"\\",10],[14,".",".",".",".",".",".",".",".",".",".",".",".",".",".",".",".",".",14,12,11,12,11,11,9,11,9,6,"h",7,"p",6,"p",7,"/",9,".",".",".",".","."],[".",".",".",".",".",".",".",".",".",".",".",".",".",".",".",".",".",".",".",12,12,12,12,12,11,11,11,".",".",".",".",".",".",".",".",".",".",".",".",".","."],[".",".",".",".",".",".",".",".",".",".",".",".",".",".",".",".",".",".",".",".",".",".",".",".",".",".",".",".",".",".",".",".",".",".",".",".",".",".",".",".","."],[".",".",".",".",".",".",".",".",".",".",".",".",".",".",".",".",".",".",".",".",".",".",".",".",".",".",".",".",".",".",".",".",".",".",".",".",".",".",".",".","."]],[[".",".",".",9,"/",10,".",".",".",".",".",".",".",".",".",".",".",".",".",".",".",".",".",".",".",".",".",".",".",".",".",".",".",".",".",".",".",".",".",".",".","."],[8,"/",10,".",".",".",7,"/",8,".",".",".",".",5,7,7,"/",8,8,7,8,8,"/",10,".",".",".",".",".",".",".",".",".",".",".",".",".",".",".",".",".","."],[".",".",".",".",".",".",".",".",".",5,"/",7,7,".",".",".",".",".",".",".",".",".",".",".",".",".",".",".",".",".",".",".",".",".",".",".",".",".",".",".",".","."],[".",".",".",".",".",".",".",".",".",".",".",".",".",".",".",".",".",".",".",".",".",".",".",".",".",".",".",".",".",".",".",".",".",".",".",".",5,7,9,5,7,9],[".",".",".",".",".",".",".",".",".",".",".",".",".",".",".",".",".",".",".",".",".",".",".",".",".",".",".",".",".",".",5,7,9,5,7,9,".",".",".",".",".","."],[".",".",".",".",".",".",".",".",".",".",".",".",".",".",".",".",".",".",".",".",".",".",".",".",5,7,9,5,7,9,".",".",".",".",".",".",".",".",".",".",".","."]],[[".",".",".",".",".",".",".",".",".",".",".",".",7,9,10,7,9,10,".",".",".",10,".",12,".",12,"b",14,"r",12,10,12,"b",14,"r",12],[".",".",".",".",".",".",7,8,10,7,8,10,".",".",".",".",".",".",8,"/",10,".",10,".",10,".",".",".",".",".",".",".",".",".",".","."],[6,7,9,6,7,9,".",".",".",".",".",".",".",".",".",".",".",".",".",".",".",".",".",".",".",".",".",".",".",".",".",".",".",".",".","."],[".",".",".",".",".",".",".",".",".",".",".",".",".",".",".",".",".",".",".",".",".",".",".",".",".",".",".",".",".",".",".",".",".",".",".","."],[".",".",".",".",".",".",".",".",".",".",".",".",".",".",".",".",".",".",".",".",".",".",".",".",".",".",".",".",".",".",".",".",".",".",".","."],[".",".",".",".",".",".",".",".",".",".",".",".",".",".",".",".",".",".",".",".",".",".",".",".",".",".",".",".",".",".",".",".",".",".",".","."]],[[12,10,"\\",9,10,".",".",".",".",".",".",17,".",".",".",".",".",".",".",".",".",".",".",".",".",9,12,"p",9,12,"/",14,12,10,"\\",9,10,9],[".",".",".",".",".",17,"b",19,17,"b",19,19,17,"b",19,"r",17,"p",15,17,".",".",".",".",10,".",".",".",".",".",".",".",".",".",".",".",".","."],[".",".",".",".",".",".",".",".",".",".",".",".",".",".",".",".",".",".",".",".",".",".",".",9,".",".",".",".",".",".",".",".",".",".",".",".",".","."],[".",".",".",".",".",".",".",".",".",".",".",".",".",".",".",".",".",".",".",".",7,"h",11,".",".",".",".",".",".",".",".",".",".",".",".",".",".","."],[".",".",".",".",".",".",".",".",".",".",".",".",".",".",".",".",".",".",".",".",".",".",".",".",".",".",".",".",".",".",".",".",".",".",".",".",".","."],[".",".",".",".",".",".",".",".",".",".",".",".",".",".",".",".",".",".",".",".",".",".",".",".",".",".",".",".",".",".",".",".",".",".",".",".",".","."]],[[7,".",".",".",".",".",7,".",".",".",".",".",7,".",".",".",".",".",7,".",".",".",".",".",7,".",".",".",".",".",7,".",".",10,"/",12,"r",10],[".",10,7,10,"/",12,".",10,7,10,"/",12,".",10,7,10,"/",12,".",10,7,10,"/",12,".",10,7,10,"/",12,".",10,7,".",".",".",".","."],[".",".",".",".",".",".",".",".",".",".",".",".",".",".",".",".",".",".",".",".",".",".",".",".",".",".",".",".",".",".",".",".",".",".",".",".",".","."],[".",".",".",".",".",".",".",".",".",".",".",".",".",".",".",".",".",".",".",".",".",".",".",".",".",".",".",".",".",".",".",".",".",".",".",".",".","."],[".",".",".",".",".",".",".",".",".",".",".",".",".",".",".",".",".",".",".",".",".",".",".",".",".",".",".",".",".",".",".",".",".",".",".",".",".","."],[".",".",".",".",".",".",".",".",".",".",".",".",".",".",".",".",".",".",".",".",".",".",".",".",".",".",".",".",".",".",".",".",".",".",".",".",".","."]],[[7,"h",10,"p",7,".",7,".",".",".",".",".",".",".",".",".",".",".",".",".",".",".",".",".",".",".",".",".",".",".",".",10,".",12,".",12,"b",14,"r",12,10,"\\",9,10],[".",".",".",".",".",10,".",10,"b",12,"r",10,"p",7,".",".",".",10,".",".",".",".",".",".",10,"/",12,10,8,"/",10,".",10,".",10,".",".",".",".",".",".",".",".","."],[".",".",".",".",".",".",".",".",".",".",".",".",".",".",9,"b",11,".",11,"r",9,"p",7,9,".",".",".",".",".",".",".",".",".",".",".",".",".",".",".",".",".",".",".","."],[".",".",".",".",".",".",".",".",".",".",".",".",".",".",".",".",".",".",".",".",".",".",".",".",".",".",".",".",".",".",".",".",".",".",".",".",".",".",".",".",".",".",".","."],[".",".",".",".",".",".",".",".",".",".",".",".",".",".",".",".",".",".",".",".",".",".",".",".",".",".",".",".",".",".",".",".",".",".",".",".",".",".",".",".",".",".",".","."],[".",".",".",".",".",".",".",".",".",".",".",".",".",".",".",".",".",".",".",".",".",".",".",".",".",".",".",".",".",".",".",".",".",".",".",".",".",".",".",".",".",".",".","."]],[[".",".",".",".",".",".",".",".",".",".",".",".",".",".",".","_",".",".",".",".",".",".",".",".",".",".",".",".",".",".",".",".",".",".",".",".",".",".",".",".",".",".",10,12],[10,"h",12,"p",10,".",".",".",".",".",".",".",".",".",".","_",".",".",".",".",".",".",".",".",".",".",7,"/",8,"\\",7,10,"/",12,"\\",10,8,"/",10,10,10,12,".","."],[".",".",".",".",".",11,"h",12,"p",11,".",".",".",".",".","_",".",".",".",".",".",7,"/",9,"\\",7,".",".",".",".",".",".",".",".",".",".",".",".",".",".",".",".",".","."],[".",".",".",".",".",".",".",".",".",".",7,"h",9,"p",7,"_",7,"/",9,"\\",7,".",".",".",".",".",".",".",".",".",".",".",".",".",".",".",".",".",".",".",".",".",".","."],[".",".",".",".",".",".",".",".",".",".",".",".",".",".",".","_",".",".",".",".",".",".",".",".",".",".",".",".",".",".",".",".",".",".",".",".",".",".",".",".",".",".",".","."],[".",".",".",".",".",".",".",".",".",".",".",".",".",".",".","_",".",".",".",".",".",".",".",".",".",".",".",".",".",".",".",".",".",".",".",".",".",".",".",".",".",".",".","."]],[[17,"|",9,"p",5,9,"p",5,9,17,"|",9,9,"/",10,"\\",9,"\\",7,"\\",5,5,7,7,2,2,"h",3,"p",2,".",".",".",".",".",".",".",".",".",".",".",".",".","."],[".","|",".",".",".",".",".",".",".",".","|",".",".",".",".",".",".",".",".",".",".",".",".",".",".",".",".",".",".",".",5,3,5,".",".",".",".",".",".",".",".",".",".","."],[".","|",".",".",".",".",".",".",".",".","|",".",".",".",".",".",".",".",".",".",".",".",".",".",".",".",".",".",".",".",".",".",".",".",".",".",".",".",".",".",".",".",".","."],[".","|",".",".",".",".",".",".",".",".","|",".",".",".",".",".",".",".",".",".",".",".",".",".",".",".",".",".",".",".",".",".",".",".",".",".",".",".",".",".",".",".",".","."],[".","|",".",".",".",".",".",".",".",".","|",".",".",".",".",".",".",".",".",".",".",".",".",".",".",".",".",".",".",".",".",".",".",7,"/",9,9,"\\",7,5,"/",7,"\\",5],[".","|",".",".",".",".",".",".",".",".","|",".",".",".",".",".",".",".",".",".",".",".",".",".",".",".",".",".",".",".",".",".",".",".",".",".",".",".",".",".",".",".",".","."]]],"numberofstrings":6,"notes":["E","B","G","D","A","E","B"],"capo":0,"stringnotes":["E4","B3","G3","D3","A2","E2"],"comments":["Stave 1:","Stave 2:","Stave 3:","Stave 4:","Stave 5:","Stave 6:","Stave 7:","Stave 8:","Stave 9:","Stave 10:","Stave 11:","Stave 12:","Stave 13:","Stave 14:","Stave 15:","Stave 16:","Stave 17:"],"timing":[["W",null,"W","W",null,"W","W",null,"W","W","W","W",null,"W","W",null,"W","W",null,"W","W","W","W",null,"W",null,"W","W",null,"W","W",null,"W",null,"W","W",null,"W",null,"W","W","W","W",null,"W"],["W",null,"W","W","W","W","W",null,"W","W",null,"W","W",null,"W","W",null,"W","W",null,"W","W",null,"W","W","W","W",null,"W","W",null,"W","W",null,"W","W","W","W","W",null,"W",null,"W"],["W",null,"W","W",null,"W","W","W",null,"W",null,"W","W","W","W",null,"W","W","W",null,"W","W",null,"W","W","W","W","W",null,"W","W",null,"W",null,"W",null,"W","W","W","W"],["W",null,"W","W","W","W","W",null,"W",null,"W","W","W","W","W",null,"W","W","W","W","W","W",null,"W",null,"W","W","W","W","W",null,"W","W",null,"W","W",null,"W","W","W"],["W",null,"W","W",null,"W","W","W","W","W","W",null,"W","W","W","W",null,"W","W",null,"W","W","W","W","W","W",null,"W","W","W",null,"W",null,"W","W","W","W"],["W",null,"W","W","W","W",null,"W",null,"W","W",null,"W","W","W","W",null,"W","W","W","W","W","W",null,"W",null,"W",null,"W","W","W","W","W","W","W"],["W","W","W",null,"W",null,"W",null,"W","W","W","W",null,"W",null,"W","W",null,"W","W","W",null,"W","W",null,"W","W",null,"W","W","W",null,"W","W",null,"W","W",null,"W","W","W"],["W","W","W",null,"W","W",null,"W","W",null,"W",null,"W","W","W",null,"W","W","W",null,"W","W","W","W","W","W",null,"W",null,"W",null,"W","W","W",null,"W",null,"W","W","W","W",null,"W"],["W",null,"W","W","W","W",null,"W",null,"W","W",null,"W","W",null,"W",null,"W","W",null,"W",null,"W","W","W","W",null,"W","W","W","W","W","W","W","W","W",null,"W"],["W","W","W","W",null,"W","W",null,"W",null,"W","W","W",null,"W",null,"W","W","W","W","W","W","W","W","W","W","W","W",null,"W",null,"W",null,"W",null,"W","W",null,"W",null,"W"],["W",null,"W","W",null,"W","W",null,"W","W",null,"W","W","W","W","W",null,"W","W","W","W","W",null,"W","W","W","W","W","W","W","W","W","W","W","W","W","W","W","W","W","W","W"],["W","W","W","W","W","W","W","W","W","W","W","W","W","W","W","W","W","W","W",null,"W","W","W","W","W","W",null,"W",null,"W","W","W",null,"W",null,"W"],["W","W",null,"W","W","W",null,"W","W",null,"W","W","W",null,"W",null,"W",null,"W","W","W",null,"W","W","W","W","W",null,"W","W",null,"W","W","W",null,"W","W","W"],["W","W","W","W",null,"W","W","W","W","W",null,"W","W","W","W","W",null,"W","W","W","W","W",null,"W","W","W","W","W",null,"W","W","W","W","W",null,"W",null,"W"],["W",null,"W",null,"W","W","W","W",null,"W",null,"W",null,"W","W",null,"W","W","W",null,"W",null,"W","W","W",null,"W","W","W",null,"W","W","W","W","W","W",null,"W",null,"W","W",null,"W","W"],["W",null,"W",null,"W","W",null,"W",null,"W","W",null,"W",null,"W",null,"W",null,"W",null,"W","W",null,"W",null,"W","W",null,"W",null,"W","W",null,"W",null,"W","W",null,"W","W","W","W","W","W"],["W",null,"W",null,"W","W",null,"W","W","W",null,"W","W",null,"W",null,"W",null,"W",null,"W","W","W","W","W","W",null,"W",null,"W","W","W","W","W",null,"W","W",null,"W","W",null,"W",null,"W"]],"timingvisible":false,"tabcounter":44,"stave":16,"totalstaves":17,"instrument":"6guitar","selectedtuning":"6_standard","version":"13"}
Submitted by musica em foco on Tue, 2020-10-06 17:52