Walking blues bass

Chords

01234567891011121314151617181920212223
E
B
G
D
A
E
B
0 1 2 3 4 5 6 7 8 9 10 11 12 13 14 15 16 17 18 19 20 21 22 23
(/) Slide Up  (\) Slide Down  (h) Hammer On  (p) Pull Off  (b) Bend (r) Release (v) Vibrato

Stave 1:

G|--------------------------------------------------
D|-----------4--5--4-----------------4--5--4--------
A|-----4--7-----------7--4-----4--7-----------7--4--
E|--5-----------------------5-----------------------

Stave 2:

G|-----------4--5--4-----------------4--5--4--------
D|-----4--7-----------7--4-----4--7-----------7--4--
A|--5-----------------------5-----------------------
E|--------------------------------------------------

Stave 3:

G|--------------------------------------------------
D|-----------4--5--4-----------------4--5--4--------
A|-----4--7-----------7--4-----4--7-----------7--4--
E|--5-----------------------5-----------------------

Stave 4:

G|-----------6--7--6--------
D|-----6--9-----------9--6--
A|--7-----------------------
E|--------------------------

Stave 5:

G|-----------4--5--4--------
D|-----4--7-----------7--4--
A|--5-----------------------
E|--------------------------

Stave 6:

G|-----------------------------
D|-----------4--5--4-----------
A|-----4--7-----------7--4-----
E|--5-----------------------5--

							http://www.guitartabcreator.com
Instruments
{"title":"Walking blues bass","strings":[[[".",".",".",".",".",".",".",".",".",".",".",".",".",".",".","."],[".",".",".",4,5,4,".",".",".",".",".",4,5,4,".","."],[".",4,7,".",".",".",7,4,".",4,7,".",".",".",7,4],[5,".",".",".",".",".",".",".",5,".",".",".",".",".",".","."]],[[".",".",".",4,5,4,".",".",".",".",".",4,5,4,".","."],[".",4,7,".",".",".",7,4,".",4,7,".",".",".",7,4],[5,".",".",".",".",".",".",".",5,".",".",".",".",".",".","."],[".",".",".",".",".",".",".",".",".",".",".",".",".",".",".","."]],[[".",".",".",".",".",".",".",".",".",".",".",".",".",".",".","."],[".",".",".",4,5,4,".",".",".",".",".",4,5,4,".","."],[".",4,7,".",".",".",7,4,".",4,7,".",".",".",7,4],[5,".",".",".",".",".",".",".",5,".",".",".",".",".",".","."]],[[".",".",".",6,7,6,".","."],[".",6,9,".",".",".",9,6],[7,".",".",".",".",".",".","."],[".",".",".",".",".",".",".","."]],[[".",".",".",4,5,4,".","."],[".",4,7,".",".",".",7,4],[5,".",".",".",".",".",".","."],[".",".",".",".",".",".",".","."]],[[".",".",".",".",".",".",".",".","."],[".",".",".",4,5,4,".",".","."],[".",4,7,".",".",".",7,4,"."],[5,".",".",".",".",".",".",".",5]]],"numberofstrings":4,"notes":["G","D","A","E"],"capo":0,"stringnotes":["G2","D2","A1","E1"],"comments":["Stave 1:","Stave 2:","Stave 3:","Stave 4:","Stave 5:","Stave 6:"],"timing":[["W","W","W","W","W","W","W","W","W","W","W","W","W","W","W","W"],["W","W","W","W","W","W","W","W","W","W","W","W","W","W","W","W"],["W","W","W","W","W","W","W","W","W","W","W","W","W","W","W","W"],["W","W","W","W","W","W","W","W"],["W","W","W","W","W","W","W","W"],["W","W","W","W","W","W","W","W","W"]],"timingvisible":false,"tabcounter":9,"stave":5,"totalstaves":6,"instrument":"4bass","selectedtuning":"4bass_standard","version":"13"}

Member for

3 months 1 week
Submitted by MurrayByfield on Mon, 2020-03-30 17:57