Sunshine of your love - guitar

Chords

01234567891011121314151617181920212223
E
B
G
D
A
E
B
0 1 2 3 4 5 6 7 8 9 10 11 12 13 14 15 16 17 18 19 20 21 22 23
(/) Slide Up  (\) Slide Down  (h) Hammer On  (p) Pull Off  (b) Bend (r) Release (v) Vibrato

Stave 1:

E|------------------------------------------
B|------------------------------------------
G|------------------------------------------
D|--14--14--12--14--------------------------
A|------------------14--13--12------10------
E|------------------------------12------12--

Stave 2:

E|--------------3--
B|--1--1--1-----3--
G|--1--1--1--5--4--
D|--1--1--1--5--5--
A|-----------3--5--
E|--------------3--

Stave 3:

E|--------------3--
B|--1--1--1-----3--
G|--1--1--1--5--4--
D|--1--1--1--5--5--
A|-----------3--5--
E|--------------3--

Stave 4:

E|--------------3--
B|--1--1--1-----3--
G|--1--1--1--5--4--
D|--1--1--1--5--5--
A|-----------3--5--
E|--------------3--

Stave 5:

E|--------------------------------------------------
B|--1--1--1--1--1--1--1--1--1--1--1--1--1--1--1--1--
G|--1--1--1--1--1--1--1--1--1--1--1--1--1--1--1--1--
D|--1--1--1--1--1--1--1--1--1--1--1--1--1--1--1--1--
A|--------------------------------------------------
E|--------------------------------------------------

							http://www.guitartabcreator.com
Instruments
{"title":"Sunshine of your love - guitar","strings":[[[".",".",".",".",".",".",".",".",".","."],[".",".",".",".",".",".",".",".",".","."],[".",".",".",".",".",".",".",".",".","."],[14,14,12,14,".",".",".",".",".","."],[".",".",".",".",14,13,12,".",10,"."],[".",".",".",".",".",".",".",12,".",12]],[[".",".",".",".",3],[1,1,1,".",3],[1,1,1,5,4],[1,1,1,5,5],[".",".",".",3,5],[".",".",".",".",3]],[[".",".",".",".",3],[1,1,1,".",3],[1,1,1,5,4],[1,1,1,5,5],[".",".",".",3,5],[".",".",".",".",3]],[[".",".",".",".",3],[1,1,1,".",3],[1,1,1,5,4],[1,1,1,5,5],[".",".",".",3,5],[".",".",".",".",3]],[[".",".",".",".",".",".",".",".",".",".",".",".",".",".",".","."],[1,1,1,1,1,1,1,1,1,1,1,1,1,1,1,1],[1,1,1,1,1,1,1,1,1,1,1,1,1,1,1,1],[1,1,1,1,1,1,1,1,1,1,1,1,1,1,1,1],[".",".",".",".",".",".",".",".",".",".",".",".",".",".",".","."],[".",".",".",".",".",".",".",".",".",".",".",".",".",".",".","."]]],"numberofstrings":6,"notes":["E","B","G","D","A","E","B"],"capo":0,"stringnotes":["E4","B3","G3","D3","A2","E2"],"comments":["Stave 1:","Stave 2:","Stave 3:","Stave 4:","Stave 5:"],"timing":[["W","W","W","W","W","W","W","W","W","W"],["W","W","W","W","W"],["W","W","W","W","W"],["W","W","W","W","W"],["W","W","W","W","W","W","W","W","W","W","W","W","W","W","W","W"]],"timingvisible":false,"tabcounter":15,"stave":4,"totalstaves":5,"instrument":"6guitar","selectedtuning":"6_standard","version":"13"}

Member for

3 months 1 week
Submitted by MurrayByfield on Mon, 2020-03-30 22:20