Sound will begin in 5 seconds

The Shins - Gone for Good

01234567891011121314151617181920212223
E
B
G
D
A
E
B
0 1 2 3 4 5 6 7 8 9 10 11 12 13 14 15 16 17 18 19 20 21 22 23
Song Science #1: How Pros Use 6 Chords to Write Hit Songs
(/) Slide Up  (\) Slide Down  (h) Hammer On  (p) Pull Off  (b) Bend (r) Release (v) Vibrato

Stave 1:

E|--12----------10----------8---------7h8--------------------------------------
B|------13----------12---------10--8-------8--10--8----------------------------
G|----------12----------12---------------------------10--9h10/12--5--5/7--7h9--
D|-----------------------------------------------------------------------------
A|-----------------------------------------------------------------------------
E|-----------------------------------------------------------------------------

Stave 2:

E|--------7--8--------8---------8---------8---------8-10-----8-10-----8-10--------8-10-----
B|-----8-----------------8---------8---------8------8h10--8--8h10--8--8h10--8--8--8h10--8--
G|--9-----------10----------10--------10--------10-----------------------------------------
D|-----------------------------------------------------------------------------------------
A|-----------------------------------------------------------------------------------------
E|-----------------------------------------------------------------------------------------

Stave 3:

E|-----7--------------------------------------------------------------
B|--8-----8-----------------------------------------------------------
G|-----------7-----------------------------------------5h7--5h7--7/9--
D|--------------10--9-----------------------------5h7-----------------
A|---------------------10--------------------5h7----------------------
E|-------------------------10--8--7--7--7h8---------------------------

http://www.guitartabcreator.com
Guitar Tab Creator is intended to store guitar tab created through the tool. It currently does not support in-line text editing. Any text you place in here will be lost. If you need to comment on your tab, please use the "Tab Notes" section located below.