Preciso Me Encontrar

Chords

01234567891011121314151617181920212223
E
B
G
D
A
E
B
0 1 2 3 4 5 6 7 8 9 10 11 12 13 14 15 16 17 18 19 20 21 22 23
(/) Slide Up  (\) Slide Down  (h) Hammer On  (p) Pull Off  (b) Bend (r) Release (v) Vibrato

Stave 1:

D|-----------3-----------3-----------0--2p0--------------3-----2-----------------0--3--7--0--0--3--7--0--0--3--7--0--0-----7--0-----------5--3--5--
A|--------5-----------5----------------------------------4-----4--------------------------0-----------------------0-----8-----2-----2-----4--------
F|-----4-----------4--------------5----------5--------2-----2-----2-----------0-----------0-----------2-----------5-----------0--0--------2--------
C|--2-----------0--------------4----------------4--------------------------2--------------------------4--------------------------------------------
G|--------------------------3----------------------2--------------------2-----------------------------3-----------0-----------1--------2-----------
D|-------------------------------------------------------------------0-----------------------------------------------------------------------------

Stave 2:

D|--5p3--0-----0-----0--0-----------------------2--------------------------------------------------------------------------------------------
A|-------------0-----0--0-----5-----5-----4-----1--------------0-----------0--------------0-----------0--------------------------------------
F|-------------0-----0--0-----3-----3-----2-----2-----------0-----------0--------------0-----------0--------------4\2--0--2--0h2p0-----------
C|----------------0-----------5-----5-----4--1-----------2--------2--2--------2-----2--------2--2--------2--------------------------2--------
G|-------------------------4-----3-----2--------------2-----------5--------------3-----------0--------------1--2--------------------------2--
D|----------0--------------------------------------0-----------------------------------------------------------------------------------0-----

Stave 3:

D|--------------------------------------------------0-----------0--------------------0--------0-----------------------------------------------------
A|-----------------------------------------------0-----------0--------------------1-----1-----------1-----------------3-----------3-----------------
F|-----------------------------------------1-----------1-----------------------2-----------2-----------2-----------2--------2--------0--------0-----
C|--2--------------------------0--1--2--------0-----------0--------2--------2-----------------------------4-----4--------4-----------------0--------
G|--------------0--1--2--3--4--------------------------------------------3-----------------------------------5-----------3-----3--------------------
D|-----2--3--4--------------------------1--------------0--------------5--------------3-----------3--------------------------------------3--------3--

Stave 4:

D|-----0-------------------------------
A|--0-----3h5p3-----1-----0h1p0--------
F|------------------2------------2-----
C|------------------1---------------2--
G|---------------0-----2---------------
D|----------------------------------0--

Stave 5:

D|--------5-----3-----2--------3--2h3p2p0-------------------------------------------------12--
A|--------4-----4-----4--------------------3--1h3p1p0-------------------------------------12--
F|-----2-----2-----2-----2-----------------------------2--0h2p0---------------------------12--
C|---------------------------------------------------------------4--2p0-----------------------
G|--2--------------------------------------------------------------------3--2p0---------------
D|--------------------------0----------------------------------------------------3--2--0------

							http://www.guitartabcreator.com
Instruments
{"strings":[[[".",".",".",3,".",".",".",3,".",".",".",0,2,"p",0,".",".",".",".",3,".",2,".",".",".",".",".",0,3,7,0,0,3,7,0,0,3,7,0,0,".",7,0,".",".",".",5,3,5],[".",".",5,".",".",".",5,".",".",".",".",".",".",".",".",".",".",".",".",4,".",4,".",".",".",".",".",".",".",".",0,".",".",".",".",".",".",".",0,".",8,".",2,".",2,".",4,".","."],[".",4,".",".",".",4,".",".",".",".",5,".",".",".",".",5,".",".",2,".",2,".",2,".",".",".",0,".",".",".",0,".",".",".",2,".",".",".",5,".",".",".",0,0,".",".",2,".","."],[2,".",".",".",0,".",".",".",".",4,".",".",".",".",".",".",4,".",".",".",".",".",".",".",".",2,".",".",".",".",".",".",".",".",4,".",".",".",".",".",".",".",".",".",".",".",".",".","."],[".",".",".",".",".",".",".",".",3,".",".",".",".",".",".",".",".",2,".",".",".",".",".",".",2,".",".",".",".",".",".",".",".",".",3,".",".",".",0,".",".",".",1,".",".",2,".",".","."],[".",".",".",".",".",".",".",".",".",".",".",".",".",".",".",".",".",".",".",".",".",".",".",0,".",".",".",".",".",".",".",".",".",".",".",".",".",".",".",".",".",".",".",".",".",".",".",".","."]],[[5,"p",3,0,".",0,".",0,0,".",".",".",".",".",".",".",2,".",".",".",".",".",".",".",".",".",".",".",".",".",".",".",".",".",".",".",".",".",".",".",".",".",".",".",".",".",".",".",".",".","."],[".",".",".",".",".",0,".",0,0,".",5,".",5,".",4,".",1,".",".",".",".",0,".",".",".",0,".",".",".",".",0,".",".",".",0,".",".",".",".",".",".",".",".",".",".",".",".",".",".",".","."],[".",".",".",".",".",0,".",0,0,".",3,".",3,".",2,".",2,".",".",".",0,".",".",".",0,".",".",".",".",0,".",".",".",0,".",".",".",".",4,"\\",2,0,2,0,"h",2,"p",0,".",".","."],[".",".",".",".",".",".",0,".",".",".",5,".",5,".",4,1,".",".",".",2,".",".",2,2,".",".",2,".",2,".",".",2,2,".",".",2,".",".",".",".",".",".",".",".",".",".",".",".",2,".","."],[".",".",".",".",".",".",".",".",".",4,".",3,".",2,".",".",".",".",2,".",".",".",5,".",".",".",".",3,".",".",".",0,".",".",".",".",1,2,".",".",".",".",".",".",".",".",".",".",".",".",2],[".",".",".",".",0,".",".",".",".",".",".",".",".",".",".",".",".",0,".",".",".",".",".",".",".",".",".",".",".",".",".",".",".",".",".",".",".",".",".",".",".",".",".",".",".",".",".",".",".",0,"."]],[[".",".",".",".",".",".",".",".",".",".",".",".",".",".",".",".",0,".",".",".",0,".",".",".",".",".",".",0,".",".",0,".",".",".",".",".",".",".",".",".",".",".",".",".",".",".",".","."],[".",".",".",".",".",".",".",".",".",".",".",".",".",".",".",0,".",".",".",0,".",".",".",".",".",".",1,".",1,".",".",".",1,".",".",".",".",".",3,".",".",".",3,".",".",".",".","."],[".",".",".",".",".",".",".",".",".",".",".",".",".",1,".",".",".",1,".",".",".",".",".",".",".",2,".",".",".",2,".",".",".",2,".",".",".",2,".",".",2,".",".",0,".",".",0,"."],[2,".",".",".",".",".",".",".",".",0,1,2,".",".",0,".",".",".",0,".",".",2,".",".",2,".",".",".",".",".",".",".",".",".",4,".",4,".",".",4,".",".",".",".",".",0,".","."],[".",".",".",".",0,1,2,3,4,".",".",".",".",".",".",".",".",".",".",".",".",".",".",3,".",".",".",".",".",".",".",".",".",".",".",5,".",".",".",3,".",3,".",".",".",".",".","."],[".",2,3,4,".",".",".",".",".",".",".",".",1,".",".",".",".",0,".",".",".",".",5,".",".",".",".",3,".",".",".",3,".",".",".",".",".",".",".",".",".",".",".",".",3,".",".",3]],[[".",0,".",".",".",".",".",".",".",".",".",".",".",".",".",".","."],[0,".",3,"h",5,"p",3,".",1,".",0,"h",1,"p",0,".","."],[".",".",".",".",".",".",".",".",2,".",".",".",".",".",".",2,"."],[".",".",".",".",".",".",".",".",1,".",".",".",".",".",".",".",2],[".",".",".",".",".",".",".",0,".",2,".",".",".",".",".",".","."],[".",".",".",".",".",".",".",".",".",".",".",".",".",".",".",".",0]],[[".",".",5,".",3,".",2,".",".",3,2,"h",3,"p",2,"p",0,".",".",".",".",".",".",".",".",".",".",".",".",".",".",".",".",".",".",".",".",".",".",".",".",".",12],[".",".",4,".",4,".",4,".",".",".",".",".",".",".",".",".",".",3,1,"h",3,"p",1,"p",0,".",".",".",".",".",".",".",".",".",".",".",".",".",".",".",".",".",12],[".",2,".",2,".",2,".",2,".",".",".",".",".",".",".",".",".",".",".",".",".",".",".",".",".",2,0,"h",2,"p",0,".",".",".",".",".",".",".",".",".",".",".",12],[".",".",".",".",".",".",".",".",".",".",".",".",".",".",".",".",".",".",".",".",".",".",".",".",".",".",".",".",".",".",".",4,2,"p",0,".",".",".",".",".",".",".","."],[2,".",".",".",".",".",".",".",".",".",".",".",".",".",".",".",".",".",".",".",".",".",".",".",".",".",".",".",".",".",".",".",".",".",".",3,2,"p",0,".",".",".","."],[".",".",".",".",".",".",".",".",0,".",".",".",".",".",".",".",".",".",".",".",".",".",".",".",".",".",".",".",".",".",".",".",".",".",".",".",".",".",".",3,2,0,"."]]],"numberofstrings":6,"notes":["D","A","F","C","G","D"],"capo":0,"stringnotes":["D3","A2","F2","C2","G1","D1"],"comments":["Stave 1:","Stave 2:","Stave 3:","Stave 4:","Stave 5:"],"timing":[[null,null,null,null,null,null,null,null,null,null,null,null,null,null,null,null,null,null,null,null,null,null,null,null,null,null,null,null,null,null,null,null,null,null,null,null,null,null,null,null,null,null,null,null,null,null,null,null,null,null],[null,null,null,null,null,null,null,null,null,null,null,null,null,null,null,null,null,null,null,null,"W","W","W","W","W","W","W","W","W","W","W","W","W","W","W","W","W","W","W",null,"W","W","W","W",null,"W",null,"W","W","W","W"],["W","W","W","W","W","W","W","W","W","W","W","W","W","W","W","W","W","W","W","W","W","W","W","W","W","W","W","W","W","W","W","W","W","W","W","W","W","W","W","W","W","W","W","W","W","W","W","W"],["W","W","W",null,"W",null,"W","W","W","W","W",null,"W",null,"W","W","W","W"],["W","W","W","W","W","W","W","W","W","W","W",null,"W",null,"W",null,"W","W","W",null,"W",null,"W",null,"W","W","W",null,"W",null,"W","W","W",null,"W","W","W",null,"W","W","W","W","W","W","W","W","W","W","W"]],"timingvisible":false,"tabcounter":42,"stave":4,"totalstaves":5,"instrument":"6guitar","selectedtuning":"Full Step Down","version":"13"}

Member for

6 months 2 weeks
Submitted by Murilove on Tue, 2020-10-06 14:27