Naquela Mesa

Chords

01234567891011121314151617181920212223
E
B
G
D
A
E
B
0 1 2 3 4 5 6 7 8 9 10 11 12 13 14 15 16 17 18 19 20 21 22 23
(/) Slide Up  (\) Slide Down  (h) Hammer On  (p) Pull Off  (b) Bend (r) Release (v) Vibrato

Stave 1:

E|-----------------------------------------------------------------------------------------------------------------
B|--------------------------------------5-----------4--------------------------------------5-----------4--------0--
G|-----------0--4--0h4p0-------------3-----------2--------------0--4--0h4p0-------------3-----------2--------0--2--
D|--------2---------------2p0-----5-----------4--------------2---------------2p0-----5-----------4-----------2--1--
A|-----2-----------------------4-----------2--------------2-----------------------4-----------2--------------2--2--
E|--0--------------------------------------------------0--------------------------------------------------0--------

Stave 2:

E|--3--2p0--------3--3--2p0-----------3--3--2p0-----------3--3--2--------------------5-------------5--5----------------5--5----------
B|----------0----------------0-------------------0--------------0--0--1--------------5--8p7--------------8p7--------------------8p7--
G|-------------0-------------------0--------0----------0--------1--------------2-----5-------5--5-------------5-----5----------------
D|--------------------------------------------------------------------------2--------------------------------------------------------
A|----------------------2-------------------2----------------------------0-------------------0-------------------0-------------------
E|----------0-------------------0-------------------0-----------0-----------------0----------------------0-------------------0-------

Stave 3:

E|-----------5--5-----3--2-----------3--2h3p2p0--------3--3--2p0-----------3--3-----2p0-----------------------0--------------
B|--------------------4-----0-----0--------------0----------------0----------------------0--------0--0--1--3-----------------
G|--5-----5-----------2--------0--2-----------------0-------------------0-----------0----------1-----------------------2-----
D|--------------------------------1---------------------------------------------------------------------------------2--------
A|-----0-----------2--------------2--------------------------2-------------------2-------------------------------0-----------
E|--------------------------0--------------------0-------------------0----------------------0-----------0-----------------0--

Stave 4:

E|--5--5--5--5--------5--3--2--5/8-----7--0h2--3/5--3-----2-------2--3--0-----------
B|--5-----------8--7-----4--------------------------------2--4h5--4--------------0--
G|--5--------------------2-------------0------------------3-------2--------------2--
D|-------------------------------------------------------------------------------1--
A|-----------0-----------2----------------------------------------2-----------2--2--
E|----------------------------------0------------------2-------------------0--------

Stave 5:

E|--5--5--5--5--------5--3--2--5/8-----7--0h2--3/5--3-----2-------2--5/8--7--------------2/5--5--5--5--------5--3--2--3-----2--
B|--5-----------8--7-----4--------------------------------2--4h5--4----------------9--9-------------5--8--7-----4--------------
G|--5--------------------2-------------0------------------3-------2-------------------7-------------5-----------2-----------0--
D|------------------------------------------------------------------------------9----------------------------------------------
A|-----------0-----------2----------------------------------------2----------7----------------------0-----------2--------------
E|----------------------------------0------------------2-----------------------------------------------------------------0-----

Stave 6:

E|--0h2--3/5--3-----2-------2--3--0-----------
B|------------------2--4h5--4--------------0--
G|------------------3-------2--------------2--
D|-----------------------------------------1--
A|--------------------------2-----------2--2--
E|---------------2-------------------0--------

Stave 7:

E|--------3-----2-----0--------------------------0--
B|--------0-----0-----0--------0-----------0-----0--
G|-----------0-----0-----------3-----------2-----0--
D|--------------------------2-----2-----1-----1--4--
A|-----2-----------------3-----------2-----------2--
E|--0--------------------------------------------0--

							http://www.guitartabcreator.com
Instruments
{"strings":[[[".",".",".",".",".",".",".",".",".",".",".",".",".",".",".",".",".",".",".",".",".",".",".",".",".",".",".",".",".",".",".",".",".",".",".",".",".",".",".",".",".",".",".",".","."],[".",".",".",".",".",".",".",".",".",".",".",".",".",".",".",".",5,".",".",".",4,".",".",".",".",".",".",".",".",".",".",".",".",".",".",".",".",5,".",".",".",4,".",".",0],[".",".",".",0,4,0,"h",4,"p",0,".",".",".",".",".",3,".",".",".",2,".",".",".",".",0,4,0,"h",4,"p",0,".",".",".",".",".",3,".",".",".",2,".",".",0,2],[".",".",2,".",".",".",".",".",".",".",2,"p",0,".",5,".",".",".",4,".",".",".",".",2,".",".",".",".",".",".",".",2,"p",0,".",5,".",".",".",4,".",".",".",2,1],[".",2,".",".",".",".",".",".",".",".",".",".",".",4,".",".",".",2,".",".",".",".",2,".",".",".",".",".",".",".",".",".",".",".",4,".",".",".",2,".",".",".",".",2,2],[0,".",".",".",".",".",".",".",".",".",".",".",".",".",".",".",".",".",".",".",".",0,".",".",".",".",".",".",".",".",".",".",".",".",".",".",".",".",".",".",".",".",0,".","."]],[[3,2,"p",0,".",".",3,3,2,"p",0,".",".",".",3,3,2,"p",0,".",".",".",3,3,2,".",".",".",".",".",".",5,".",".",".",".",".",5,5,".",".",".",".",".",".",5,5,".",".",".","."],[".",".",".",".",0,".",".",".",".",".",".",0,".",".",".",".",".",".",".",0,".",".",".",".",0,0,1,".",".",".",".",5,8,"p",7,".",".",".",".",8,"p",7,".",".",".",".",".",".",8,"p",7],[".",".",".",".",".",0,".",".",".",".",".",".",".",0,".",".",0,".",".",".",".",0,".",".",1,".",".",".",".",2,".",5,".",".",".",5,5,".",".",".",".",".",5,".",5,".",".",".",".",".","."],[".",".",".",".",".",".",".",".",".",".",".",".",".",".",".",".",".",".",".",".",".",".",".",".",".",".",".",".",2,".",".",".",".",".",".",".",".",".",".",".",".",".",".",".",".",".",".",".",".",".","."],[".",".",".",".",".",".",".",".",2,".",".",".",".",".",".",".",2,".",".",".",".",".",".",".",".",".",".",0,".",".",".",".",".",".",".",0,".",".",".",".",".",".",".",0,".",".",".",".",".",".","."],[".",".",".",".",0,".",".",".",".",".",".",".",0,".",".",".",".",".",".",".",0,".",".",".",0,".",".",".",".",".",0,".",".",".",".",".",".",".",".",0,".",".",".",".",".",".",".",0,".",".","."]],[[".",".",".",5,5,".",3,2,".",".",".",3,2,"h",3,"p",2,"p",0,".",".",3,3,2,"p",0,".",".",".",3,3,".",2,"p",0,".",".",".",".",".",".",".",0,".",".",".","."],[".",".",".",".",".",".",4,".",0,".",0,".",".",".",".",".",".",".",".",0,".",".",".",".",".",".",0,".",".",".",".",".",".",".",".",0,".",".",0,0,1,3,".",".",".",".","."],[5,".",5,".",".",".",2,".",".",0,2,".",".",".",".",".",".",".",".",".",0,".",".",".",".",".",".",".",0,".",".",".",0,".",".",".",".",1,".",".",".",".",".",".",".",2,"."],[".",".",".",".",".",".",".",".",".",".",1,".",".",".",".",".",".",".",".",".",".",".",".",".",".",".",".",".",".",".",".",".",".",".",".",".",".",".",".",".",".",".",".",".",2,".","."],[".",0,".",".",".",2,".",".",".",".",2,".",".",".",".",".",".",".",".",".",".",".",".",2,".",".",".",".",".",".",".",2,".",".",".",".",".",".",".",".",".",".",".",0,".",".","."],[".",".",".",".",".",".",".",".",0,".",".",".",".",".",".",".",".",".",".",0,".",".",".",".",".",".",".",0,".",".",".",".",".",".",".",".",0,".",".",".",0,".",".",".",".",".",0]],[[5,5,5,5,".",".",5,3,2,5,"/",8,".",7,0,"h",2,3,"/",5,3,".",2,".",".",".",2,3,0,".",".","."],[5,".",".",".",8,7,".",4,".",".",".",".",".",".",".",".",".",".",".",".",".",".",2,4,"h",5,4,".",".",".",".",0],[5,".",".",".",".",".",".",2,".",".",".",".",".",0,".",".",".",".",".",".",".",".",3,".",".",".",2,".",".",".",".",2],[".",".",".",".",".",".",".",".",".",".",".",".",".",".",".",".",".",".",".",".",".",".",".",".",".",".",".",".",".",".",".",1],[".",".",".",0,".",".",".",2,".",".",".",".",".",".",".",".",".",".",".",".",".",".",".",".",".",".",2,".",".",".",2,2],[".",".",".",".",".",".",".",".",".",".",".",".",0,".",".",".",".",".",".",".",".",2,".",".",".",".",".",".",".",0,".","."]],[[5,5,5,5,".",".",5,3,2,5,"/",8,".",7,0,"h",2,3,"/",5,3,".",2,".",".",".",2,5,"/",8,7,".",".",".",".",2,"/",5,5,5,5,".",".",5,3,2,3,".",2],[5,".",".",".",8,7,".",4,".",".",".",".",".",".",".",".",".",".",".",".",".",".",2,4,"h",5,4,".",".",".",".",".",".",9,9,".",".",".",".",".",5,8,7,".",4,".",".",".","."],[5,".",".",".",".",".",".",2,".",".",".",".",".",0,".",".",".",".",".",".",".",".",3,".",".",".",2,".",".",".",".",".",".",".",7,".",".",".",".",".",5,".",".",".",2,".",".",".",0],[".",".",".",".",".",".",".",".",".",".",".",".",".",".",".",".",".",".",".",".",".",".",".",".",".",".",".",".",".",".",".",".",9,".",".",".",".",".",".",".",".",".",".",".",".",".",".",".","."],[".",".",".",0,".",".",".",2,".",".",".",".",".",".",".",".",".",".",".",".",".",".",".",".",".",".",2,".",".",".",".",7,".",".",".",".",".",".",".",".",0,".",".",".",2,".",".",".","."],[".",".",".",".",".",".",".",".",".",".",".",".",0,".",".",".",".",".",".",".",".",2,".",".",".",".",".",".",".",".",".",".",".",".",".",".",".",".",".",".",".",".",".",".",".",".",".",0,"."]],[[0,"h",2,3,"/",5,3,".",2,".",".",".",2,3,0,".",".","."],[".",".",".",".",".",".",".",".",2,4,"h",5,4,".",".",".",".",0],[".",".",".",".",".",".",".",".",3,".",".",".",2,".",".",".",".",2],[".",".",".",".",".",".",".",".",".",".",".",".",".",".",".",".",".",1],[".",".",".",".",".",".",".",".",".",".",".",".",2,".",".",".",2,2],[".",".",".",".",".",".",".",2,".",".",".",".",".",".",".",0,".","."]],[[".",".",3,".",2,".",0,".",".",".",".",".",".",".",".",0],[".",".",0,".",0,".",0,".",".",0,".",".",".",0,".",0],[".",".",".",0,".",0,".",".",".",3,".",".",".",2,".",0],[".",".",".",".",".",".",".",".",2,".",2,".",1,".",1,4],[".",2,".",".",".",".",".",3,".",".",".",2,".",".",".",2],[0,".",".",".",".",".",".",".",".",".",".",".",".",".",".",0]]],"numberofstrings":6,"notes":["E","B","G","D","A","E","B"],"capo":0,"stringnotes":["E4","B3","G3","D3","A2","E2"],"comments":["Stave 1:","Stave 2:","Stave 3:","Stave 4:","Stave 5:","Stave 6:","Stave 7:"],"timing":[["W","W","W","W","W","W",null,"W",null,"W","W",null,"W","W","W","W","W","W","W","W","W","W","W","W","W","W","W",null,"W",null,"W","W",null,"W","W","W","W","W","W","W","W","W","W","W","W","W","W",null,"W","W","W"],["W","W",null,"W","W","W","W","W","W","W","W","W","W","W","W","W","W",null,"W","W","W","W","W","W","W","W","W","W","W","W","W","W","W",null,"W","W","W","W","W","W",null,"W","W","W","W","W","W","W","W",null,"W"],["W","W","W","W","W","W","W","W","W","W","W","W","W",null,"W",null,"W",null,"W","W","W","W","W","W",null,"W","W","W","W","W","W","W","W",null,"W","W","W","W","W","W","W","W","W","W","W","W","W","W"],["W","W","W","W","W","W","W","W","W","W","W","W","W","W","W",null,"W","W",null,"W","W","W","W","W",null,"W","W","W","W","W","W","W"],["W","W","W","W","W","W","W","W","W","W","W","W","W","W","W",null,"W","W",null,"W","W","W","W","W",null,"W","W","W",null,"W","W","W","W","W","W","W",null,"W","W","W","W","W","W","W","W","W","W","W","W","W"],["W",null,"W","W",null,"W","W","W","W","W",null,"W","W","W","W","W","W","W"],["W","W","W","W","W","W","W","W","W","W","W","W","W","W","W","W"]],"timingvisible":false,"tabcounter":15,"stave":6,"totalstaves":7,"instrument":"6guitar","selectedtuning":"6_standard","version":"13"}

Member for

6 months 2 weeks
Submitted by Murilove on Wed, 2020-10-07 13:06