Sound will begin in 5 seconds

rootbeerragguitar2

Chords
01234567891011121314151617181920212223
E
B
G
D
A
E
B
0 1 2 3 4 5 6 7 8 9 10 11 12 13 14 15 16 17 18 19 20 21 22 23
Song Science #1: How Pros Use 6 Chords to Write Hit Songs
(/) Slide Up  (\) Slide Down  (h) Hammer On  (p) Pull Off  (b) Bend (r) Release (v) Vibrato

Stave 1:

E|-----------------------------------10--10--10--10--8--7--5-----------------------------------
B|--------6-----6--8-----6-----6--8------------------------------------------------------------
G|-----9-----9--------9-----9--------10--10--10--10--9--8--5-----------------------------------
D|---------------------------------------------------------------------------------------------
A|---------------------------------------------------------------------------------------------
E|---------------------------------------------------------------------------------------------

Stave 2:

E|------------------14--12-----------------------------------------------------------------------------
B|--13--12--13--15----------15--13--------------------------------------------------12--10-------------
G|--------------------------------------------------12--------------11--10--11--12----------12--10--9--
D|----------------------------------14--13--14--15------14--12-----------------------------------------
A|--------------------------------------------------------------15-------------------------------------
E|-----------------------------------------------------------------------------------------------------

Stave 3:

E|------12--
B|--13------
G|----------
D|----------
A|----------
E|----------

Stave 4:

E|--------------------------------------------------------------------5--3--1--0--
B|--------------1--3--5--6--5--6--------------0--1--2--3--5--3--1--0--------------
G|--------------------------------------------0--2--3--4-----4--2--0--5--4--2--0--
D|--------------2--3--5--7--5--7--------------------------5-----------------------
A|--------------------------------------------------------------------------------
E|--------------------------------------------------------------------------------

Stave 5:

E|-----------------------------------------------------------
B|--6--8--10--13--11--10--8--13--6--8--10--13--11--10--8--6--
G|-----------------------------------------------------------
D|--7--8--10--14--12--10--9--14--7--8--10--14--12--10--8--7--
A|-----------------------------------------------------------
E|-----------------------------------------------------------

Stave 6:

E|--15--13--12------12--------------------------------------------------15--13--12------12----------
B|--------------15------15--13--12--13--12--12--------------12--13--15--------------15------15--13--
G|----------------------------------------------14--12--14------------------------------------------
D|--------------------------------------------------------------------------------------------------
A|--------------------------------------------------------------------------------------------------
E|--------------------------------------------------------------------------------------------------

Stave 7:

E|------12------------------------------------
B|--13------15--------------------------------
G|--------------------------------------------
D|--------------------------------------------
A|--------------------------------------------
E|--------------------------------------------

Stave 8:

E|--------------0-----------------------0--------------0--------0------------0----------0----------
B|-----3-----------3-----------3-----------3--------------3--------3------------10---------10------
G|--------0-----------0-----------0-----------0-----5--------5--------5--12---------12---------12--
D|--3--------3-----------3--3--------3-----------3-------------------------------------------------
A|-------------------------------------------------------------------------------------------------
E|-------------------------------------------------------------------------------------------------

Stave 9:

E|--12--11--10--9--
B|-----------------
G|--12--11--10--9--
D|-----------------
A|-----------------
E|-----------------

Stave 10:

E|-----------5-----------5-----------5-----------5-----------
B|--------5-----------5-----------5-----------5-----6--6--5--
G|-----5-----------5-----------5-----------5--------5--5--4--
D|--7-----------6-----------5-----------4-----------3--3--2--
A|-----------------------------------------------------------
E|-----------------------------------------------------------

Stave 11:

E|--------------0-----------------------0---------------------------------------------------------------
B|-----3-----------3-----------3-----------3--------13--12----------------------------------------------
G|--------0-----------0-----------0-----------0-------------14--12--14--12------------------------------
D|--3--------3-----------3--3--------3-----------3--------------------------15--14--15--14--12----------
A|----------------------------------------------------------------------------------------------15--15--
E|------------------------------------------------------------------------------------------------------

Stave 12:

E|--------------0-----------------------0---------------------------------------
B|-----3-----------3-----------3-----------3------------------------------------
G|--------0-----------0-----------0-----------0---------------------------------
D|--3--------3-----------3--3--------3-----------3--2--2------------------------
A|--------------------------------------------------------3--5--6--7--8--9--10--
E|------------------------------------------------------------------------------

Stave 13:

E|--------------0-----------------------0-----------12--11--10--9--
B|-----3-----------3-----------3-----------3-----------------------
G|--------0-----------0-----------0-----------0-----12--11--10--9--
D|--3--------3-----------3--3--------3-----------3-----------------
A|-----------------------------------------------------------------
E|-----------------------------------------------------------------

Stave 14:

E|------12----------12--------------10----------10--------------8----------8-------------5--------5--------
B|----------13----------13--------------12----------12-------------10---------10------------6--------6-----
G|--12----------12----------12--12----------12----------12--10---------10---------10--5--------5--------5--
D|---------------------------------------------------------------------------------------------------------
A|---------------------------------------------------------------------------------------------------------
E|---------------------------------------------------------------------------------------------------------

Stave 15:

E|--12--12--12--------------
B|--------------13--15--13--
G|--------------------------
D|--------------------------
A|--------------------------
E|--------------------------

http://www.guitartabcreator.com
Guitar Tab Creator is intended to store guitar tab created through the tool. It currently does not support in-line text editing. Any text you place in here will be lost. If you need to comment on your tab, please use the "Tab Notes" section located below.